  0
SECTION
  2
HEADER
  9
$ACADVER
  1
AC1014
  9
$HANDSEED
  5
FFFF
  9
$MEASUREMENT
 70
     1
  0
ENDSEC
  0
SECTION
  2
TABLES
  0
TABLE
  2
VPORT
  5
8
330
0
100
AcDbSymbolTable
 70
     4
  0
VPORT
  5
2E
330
8
100
AcDbSymbolTableRecord
100
AcDbViewportTableRecord
  2
*ACTIVE
 70
     0
 10
0.0
 20
0.0
 11
1.0
 21
1.0
 12
210.0
 22
148.5
 13
0.0
 23
0.0
 14
10.0
 24
10.0
 15
10.0
 25
10.0
 16
0.0
 26
0.0
 36
1.0
 17
0.0
 27
0.0
 37
0.0
 40
341.0
 41
1.24
 42
50.0
 43
0.0
 44
0.0
 50
0.0
 51
0.0
 71
     0
 72
   100
 73
     1
 74
     3
 75
     0
 76
     0
 77
     0
 78
     0
  0
ENDTAB
  0
TABLE
  2
LTYPE
  5
5
330
0
100
AcDbSymbolTable
 70
     1
  0
LTYPE
  5
14
330
5
100
AcDbSymbolTableRecord
100
AcDbLinetypeTableRecord
  2
BYBLOCK
 70
     0
  3

 72
    65
 73
     0
 40
0.0
  0
LTYPE
  5
15
330
5
100
AcDbSymbolTableRecord
100
AcDbLinetypeTableRecord
  2
BYLAYER
 70
     0
  3

 72
    65
 73
     0
 40
0.0
  0
LTYPE
  5
16
330
5
100
AcDbSymbolTableRecord
100
AcDbLinetypeTableRecord
  2
CONTINUOUS
 70
     0
  3
Solid line
 72
    65
 73
     0
 40
0.0
  0
ENDTAB
  0
TABLE
  2
LAYER
  5
2
100
AcDbSymbolTable
 70
2
  0
LAYER
  5
50
100
AcDbSymbolTableRecord
100
AcDbLayerTableRecord
  2
0
 70
0
  6
CONTINUOUS
  0
LAYER
  5
51
100
AcDbSymbolTableRecord
100
AcDbLayerTableRecord
  2
Layer_1
 70
0
  6
CONTINUOUS
  0
ENDTAB
  0
TABLE
  2
STYLE
  5
3
330
0
100
AcDbSymbolTable
 70
     1
  0
STYLE
  5
11
330
3
100
AcDbSymbolTableRecord
100
AcDbTextStyleTableRecord
  2
STANDARD
 70
     0
 40
0.0
 41
1.0
 50
0.0
 71
     0
 42
2.5
  3
txt
  4

  0
ENDTAB
  0
TABLE
  2
VIEW
  5
6
330
0
100
AcDbSymbolTable
 70
     0
  0
ENDTAB
  0
TABLE
  2
UCS
  5
7
330
0
100
AcDbSymbolTable
 70
     0
  0
ENDTAB
  0
TABLE
  2
APPID
  5
9
330
0
100
AcDbSymbolTable
 70
     2
  0
APPID
  5
12
330
9
100
AcDbSymbolTableRecord
100
AcDbRegAppTableRecord
  2
ACAD
 70
     0
  0
ENDTAB
  0
TABLE
  2
DIMSTYLE
  5
A
330
0
100
AcDbSymbolTable
 70
     1
  0
DIMSTYLE
105
27
330
A
100
AcDbSymbolTableRecord
100
AcDbDimStyleTableRecord
  2
ISO-25
 70
     0
  3

  4

  5

  6

  7

 40
1.0
 41
2.5
 42
0.625
 43
3.75
 44
1.25
 45
0.0
 46
0.0
 47
0.0
 48
0.0
140
2.5
141
2.5
142
0.0
143
0.03937007874016
144
1.0
145
0.0
146
1.0
147
0.625
 71
     0
 72
     0
 73
     0
 74
     0
 75
     0
 76
     0
 77
     1
 78
     8
170
     0
171
     3
172
     1
173
     0
174
     0
175
     0
176
     0
177
     0
178
     0
270
     2
271
     2
272
     2
273
     2
274
     3
340
11
275
     0
280
     0
281
     0
282
     0
283
     0
284
     8
285
     0
286
     0
287
     3
288
     0
  0
ENDTAB
  0
TABLE
  2
BLOCK_RECORD
  5
1
330
0
100
AcDbSymbolTable
 70
     1
  0
BLOCK_RECORD
  5
1F
330
1
100
AcDbSymbolTableRecord
100
AcDbBlockTableRecord
  2
*MODEL_SPACE
  0
BLOCK_RECORD
  5
1B
330
1
100
AcDbSymbolTableRecord
100
AcDbBlockTableRecord
  2
*PAPER_SPACE
  0
ENDTAB
  0
ENDSEC
  0
SECTION
  2
BLOCKS
  0
BLOCK
  5
20
330
1F
100
AcDbEntity
  8
0
100
AcDbBlockBegin
  2
*MODEL_SPACE
 70
     0
 10
0.0
 20
0.0
 30
0.0
  3
*MODEL_SPACE
  1

  0
ENDBLK
  5
21
330
1F
100
AcDbEntity
  8
0
100
AcDbBlockEnd
  0
BLOCK
  5
1C
330
1B
100
AcDbEntity
 67
     1
  8
0
100
AcDbBlockBegin
  2
*PAPER_SPACE
  1

  0
ENDBLK
  5
1D
330
1B
100
AcDbEntity
 67
     1
  8
0
100
AcDbBlockEnd
  0
ENDSEC
  0
SECTION
  2
ENTITIES
  0
LINE
  5
100
100
AcDbEntity
  8
Layer_1
 62
6
100
AcDbLine
 10
333.597210
 20
30.264339
 30
0.0
 11
238.694513
 21
30.264339
 31
0.0
  0
LINE
  5
101
100
AcDbEntity
  8
Layer_1
 62
6
100
AcDbLine
 10
238.694513
 20
30.264339
 30
0.0
 11
223.694515
 21
30.264339
 31
0.0
  0
LINE
  5
102
100
AcDbEntity
  8
Layer_1
 62
6
100
AcDbLine
 10
223.694515
 20
30.264339
 30
0.0
 11
115.133814
 21
30.264339
 31
0.0
  0
LINE
  5
103
100
AcDbEntity
  8
Layer_1
 62
6
100
AcDbLine
 10
115.133814
 20
30.264339
 30
0.0
 11
20.458249
 21
30.264339
 31
0.0
  0
LINE
  5
104
100
AcDbEntity
  8
Layer_1
 62
6
100
AcDbLine
 10
20.458249
 20
30.264339
 30
0.0
 11
11.133825
 21
25.397530
 31
0.0
  0
LINE
  5
105
100
AcDbEntity
  8
Layer_1
 62
6
100
AcDbLine
 10
11.133825
 20
25.397530
 30
0.0
 11
2.635182
 21
27.897539
 31
0.0
  0
LINE
  5
106
100
AcDbEntity
  8
Layer_1
 62
6
100
AcDbLine
 10
2.635182
 20
27.897539
 30
0.0
 11
0.135173
 21
36.397536
 31
0.0
  0
LINE
  5
107
100
AcDbEntity
  8
Layer_1
 62
6
100
AcDbLine
 10
0.135173
 20
36.397536
 30
0.0
 11
30.135170
 21
65.397535
 31
0.0
  0
LINE
  5
108
100
AcDbEntity
  8
Layer_1
 62
6
100
AcDbLine
 10
30.135170
 20
65.397535
 30
0.0
 11
55.135176
 21
87.897532
 31
0.0
  0
LINE
  5
109
100
AcDbEntity
  8
Layer_1
 62
6
100
AcDbLine
 10
55.135176
 20
87.897532
 30
0.0
 11
55.135176
 21
111.456907
 31
0.0
  0
LINE
  5
10a
100
AcDbEntity
  8
Layer_1
 62
6
100
AcDbLine
 10
55.135176
 20
111.456907
 30
0.0
 11
55.135176
 21
121.647528
 31
0.0
  0
LINE
  5
10b
100
AcDbEntity
  8
Layer_1
 62
6
100
AcDbLine
 10
55.135176
 20
121.647528
 30
0.0
 11
55.135176
 21
131.022527
 31
0.0
  0
LINE
  5
10c
100
AcDbEntity
  8
Layer_1
 62
6
100
AcDbLine
 10
55.135176
 20
131.022527
 30
0.0
 11
55.135176
 21
141.145189
 31
0.0
  0
LINE
  5
10d
100
AcDbEntity
  8
Layer_1
 62
6
100
AcDbLine
 10
55.135176
 20
141.145189
 30
0.0
 11
55.135176
 21
149.772525
 31
0.0
  0
LINE
  5
10e
100
AcDbEntity
  8
Layer_1
 62
6
100
AcDbLine
 10
55.135176
 20
149.772525
 30
0.0
 11
55.135176
 21
159.147524
 31
0.0
  0
LINE
  5
10f
100
AcDbEntity
  8
Layer_1
 62
6
100
AcDbLine
 10
55.135176
 20
159.147524
 30
0.0
 11
55.135176
 21
168.522523
 31
0.0
  0
LINE
  5
110
100
AcDbEntity
  8
Layer_1
 62
6
100
AcDbLine
 10
55.135176
 20
168.522523
 30
0.0
 11
55.135176
 21
190.397539
 31
0.0
  0
LINE
  5
111
100
AcDbEntity
  8
Layer_1
 62
6
100
AcDbLine
 10
55.135176
 20
190.397539
 30
0.0
 11
30.135170
 21
215.397545
 31
0.0
  0
LINE
  5
112
100
AcDbEntity
  8
Layer_1
 62
6
100
AcDbLine
 10
30.135170
 20
215.397545
 30
0.0
 11
0.135173
 21
244.397544
 31
0.0
  0
LINE
  5
113
100
AcDbEntity
  8
Layer_1
 62
6
100
AcDbLine
 10
0.135173
 20
244.397544
 30
0.0
 11
2.635182
 21
252.897541
 31
0.0
  0
LINE
  5
114
100
AcDbEntity
  8
Layer_1
 62
6
100
AcDbLine
 10
2.635182
 20
252.897541
 30
0.0
 11
11.135179
 21
255.397522
 31
0.0
  0
LINE
  5
115
100
AcDbEntity
  8
Layer_1
 62
6
100
AcDbLine
 10
11.135179
 20
255.397522
 30
0.0
 11
21.024048
 21
250.264323
 31
0.0
  0
LINE
  5
116
100
AcDbEntity
  8
Layer_1
 62
6
100
AcDbLine
 10
21.024048
 20
250.264323
 30
0.0
 11
223.694515
 21
250.264323
 31
0.0
  0
LINE
  5
117
100
AcDbEntity
  8
Layer_1
 62
6
100
AcDbLine
 10
223.694515
 20
250.264323
 30
0.0
 11
238.694513
 21
250.264323
 31
0.0
  0
LINE
  5
118
100
AcDbEntity
  8
Layer_1
 62
6
100
AcDbLine
 10
238.694513
 20
250.264323
 30
0.0
 11
333.694521
 21
250.264323
 31
0.0
  0
LINE
  5
119
100
AcDbEntity
  8
Layer_1
 62
6
100
AcDbLine
 10
333.694521
 20
250.264323
 30
0.0
 11
333.694521
 21
235.264325
 31
0.0
  0
LINE
  5
11a
100
AcDbEntity
  8
Layer_1
 62
6
100
AcDbLine
 10
333.694521
 20
235.264325
 30
0.0
 11
323.694512
 21
225.264316
 31
0.0
  0
LINE
  5
11b
100
AcDbEntity
  8
Layer_1
 62
6
100
AcDbLine
 10
323.712208
 20
225.264316
 30
0.0
 11
264.338946
 21
225.264316
 31
0.0
  0
LINE
  5
11c
100
AcDbEntity
  8
Layer_1
 62
6
100
AcDbLine
 10
264.338946
 20
225.264316
 30
0.0
 11
253.694511
 21
215.264308
 31
0.0
  0
LINE
  5
11d
100
AcDbEntity
  8
Layer_1
 62
6
100
AcDbLine
 10
253.694511
 20
215.264308
 30
0.0
 11
253.694511
 21
65.264326
 31
0.0
  0
LINE
  5
11e
100
AcDbEntity
  8
Layer_1
 62
6
100
AcDbLine
 10
253.694511
 20
65.264326
 30
0.0
 11
264.903390
 21
55.264318
 31
0.0
  0
LINE
  5
11f
100
AcDbEntity
  8
Layer_1
 62
6
100
AcDbLine
 10
264.903390
 20
55.264318
 30
0.0
 11
282.243406
 21
55.264318
 31
0.0
  0
LINE
  5
120
100
AcDbEntity
  8
Layer_1
 62
6
100
AcDbLine
 10
282.243406
 20
55.264318
 30
0.0
 11
323.694512
 21
55.264318
 31
0.0
  0
LINE
  5
121
100
AcDbEntity
  8
Layer_1
 62
6
100
AcDbLine
 10
323.694512
 20
55.264318
 30
0.0
 11
333.694521
 21
45.264309
 31
0.0
  0
LINE
  5
122
100
AcDbEntity
  8
Layer_1
 62
6
100
AcDbLine
 10
333.694521
 20
45.264309
 30
0.0
 11
333.694521
 21
30.264311
 31
0.0
  0
SPLINE
  5
123
100
AcDbEntity
  8
Layer_1
 62
5
100
AcDbSpline
 70
8
 71
3
 72
8
 73
4
 74
0
 40
0
 40
0
 40
0
 40
0
 40
1
 40
1
 40
1
 40
1
 10
326.694492
 20
38.681772
 30
0.0
 10
327.766703
 20
38.681769
 30
0.0
 10
328.635900
 20
37.812569
 30
0.0
 10
328.635899
 20
36.740357
 30
0.0
  0
SPLINE
  5
124
100
AcDbEntity
  8
Layer_1
 62
5
100
AcDbSpline
 70
8
 71
3
 72
8
 73
4
 74
0
 40
0
 40
0
 40
0
 40
0
 40
1
 40
1
 40
1
 40
1
 10
328.635899
 20
36.740357
 30
0.0
 10
328.635900
 20
35.668146
 30
0.0
 10
327.766703
 20
34.798946
 30
0.0
 10
326.694492
 20
34.798942
 30
0.0
  0
SPLINE
  5
125
100
AcDbEntity
  8
Layer_1
 62
5
100
AcDbSpline
 70
8
 71
3
 72
8
 73
4
 74
0
 40
0
 40
0
 40
0
 40
0
 40
1
 40
1
 40
1
 40
1
 10
326.694492
 20
34.798942
 30
0.0
 10
326.179594
 20
34.798936
 30
0.0
 10
325.685782
 20
35.003475
 30
0.0
 10
325.321691
 20
35.367562
 30
0.0
  0
SPLINE
  5
126
100
AcDbEntity
  8
Layer_1
 62
5
100
AcDbSpline
 70
8
 71
3
 72
8
 73
4
 74
0
 40
0
 40
0
 40
0
 40
0
 40
1
 40
1
 40
1
 40
1
 10
325.321691
 20
35.367562
 30
0.0
 10
324.957601
 20
35.731648
 30
0.0
 10
324.753057
 20
36.225458
 30
0.0
 10
324.753057
 20
36.740357
 30
0.0
  0
SPLINE
  5
127
100
AcDbEntity
  8
Layer_1
 62
5
100
AcDbSpline
 70
8
 71
3
 72
8
 73
4
 74
0
 40
0
 40
0
 40
0
 40
0
 40
1
 40
1
 40
1
 40
1
 10
324.753057
 20
36.740357
 30
0.0
 10
324.753057
 20
37.255256
 30
0.0
 10
324.957601
 20
37.749066
 30
0.0
 10
325.321691
 20
38.113153
 30
0.0
  0
SPLINE
  5
128
100
AcDbEntity
  8
Layer_1
 62
5
100
AcDbSpline
 70
8
 71
3
 72
8
 73
4
 74
0
 40
0
 40
0
 40
0
 40
0
 40
1
 40
1
 40
1
 40
1
 10
325.321691
 20
38.113153
 30
0.0
 10
325.685782
 20
38.477239
 30
0.0
 10
326.179594
 20
38.681778
 30
0.0
 10
326.694492
 20
38.681772
 30
0.0
  0
LINE
  5
129
100
AcDbEntity
  8
Layer_1
 62
5
100
AcDbLine
 10
326.694492
 20
38.681772
 30
0.0
 11
326.694492
 21
38.681772
 31
0.0
  0
SPLINE
  5
12a
100
AcDbEntity
  8
Layer_1
 62
5
100
AcDbSpline
 70
8
 71
3
 72
8
 73
4
 74
0
 40
0
 40
0
 40
0
 40
0
 40
1
 40
1
 40
1
 40
1
 10
326.694492
 20
246.681800
 30
0.0
 10
327.766703
 20
246.681796
 30
0.0
 10
328.635900
 20
245.812596
 30
0.0
 10
328.635899
 20
244.740384
 30
0.0
  0
SPLINE
  5
12b
100
AcDbEntity
  8
Layer_1
 62
5
100
AcDbSpline
 70
8
 71
3
 72
8
 73
4
 74
0
 40
0
 40
0
 40
0
 40
0
 40
1
 40
1
 40
1
 40
1
 10
328.635899
 20
244.740384
 30
0.0
 10
328.635900
 20
243.668173
 30
0.0
 10
327.766703
 20
242.798973
 30
0.0
 10
326.694492
 20
242.798969
 30
0.0
  0
SPLINE
  5
12c
100
AcDbEntity
  8
Layer_1
 62
5
100
AcDbSpline
 70
8
 71
3
 72
8
 73
4
 74
0
 40
0
 40
0
 40
0
 40
0
 40
1
 40
1
 40
1
 40
1
 10
326.694492
 20
242.798969
 30
0.0
 10
326.179594
 20
242.798963
 30
0.0
 10
325.685782
 20
243.003502
 30
0.0
 10
325.321691
 20
243.367589
 30
0.0
  0
SPLINE
  5
12d
100
AcDbEntity
  8
Layer_1
 62
5
100
AcDbSpline
 70
8
 71
3
 72
8
 73
4
 74
0
 40
0
 40
0
 40
0
 40
0
 40
1
 40
1
 40
1
 40
1
 10
325.321691
 20
243.367589
 30
0.0
 10
324.957601
 20
243.731676
 30
0.0
 10
324.753057
 20
244.225485
 30
0.0
 10
324.753057
 20
244.740384
 30
0.0
  0
SPLINE
  5
12e
100
AcDbEntity
  8
Layer_1
 62
5
100
AcDbSpline
 70
8
 71
3
 72
8
 73
4
 74
0
 40
0
 40
0
 40
0
 40
0
 40
1
 40
1
 40
1
 40
1
 10
324.753057
 20
244.740384
 30
0.0
 10
324.753057
 20
245.255283
 30
0.0
 10
324.957601
 20
245.749093
 30
0.0
 10
325.321691
 20
246.113180
 30
0.0
  0
SPLINE
  5
12f
100
AcDbEntity
  8
Layer_1
 62
5
100
AcDbSpline
 70
8
 71
3
 72
8
 73
4
 74
0
 40
0
 40
0
 40
0
 40
0
 40
1
 40
1
 40
1
 40
1
 10
325.321691
 20
246.113180
 30
0.0
 10
325.685782
 20
246.477267
 30
0.0
 10
326.179594
 20
246.681805
 30
0.0
 10
326.694492
 20
246.681800
 30
0.0
  0
LINE
  5
130
100
AcDbEntity
  8
Layer_1
 62
5
100
AcDbLine
 10
326.694492
 20
246.681800
 30
0.0
 11
326.694492
 21
246.681800
 31
0.0
  0
SPLINE
  5
131
100
AcDbEntity
  8
Layer_1
 62
5
100
AcDbSpline
 70
8
 71
3
 72
8
 73
4
 74
0
 40
0
 40
0
 40
0
 40
0
 40
1
 40
1
 40
1
 40
1
 10
12.694471
 20
38.681772
 30
0.0
 10
13.209370
 20
38.681778
 30
0.0
 10
13.703182
 20
38.477239
 30
0.0
 10
14.067272
 20
38.113153
 30
0.0
  0
SPLINE
  5
132
100
AcDbEntity
  8
Layer_1
 62
5
100
AcDbSpline
 70
8
 71
3
 72
8
 73
4
 74
0
 40
0
 40
0
 40
0
 40
0
 40
1
 40
1
 40
1
 40
1
 10
14.067272
 20
38.113153
 30
0.0
 10
14.431363
 20
37.749066
 30
0.0
 10
14.635907
 20
37.255256
 30
0.0
 10
14.635906
 20
36.740357
 30
0.0
  0
SPLINE
  5
133
100
AcDbEntity
  8
Layer_1
 62
5
100
AcDbSpline
 70
8
 71
3
 72
8
 73
4
 74
0
 40
0
 40
0
 40
0
 40
0
 40
1
 40
1
 40
1
 40
1
 10
14.635906
 20
36.740357
 30
0.0
 10
14.635907
 20
36.225458
 30
0.0
 10
14.431363
 20
35.731648
 30
0.0
 10
14.067272
 20
35.367562
 30
0.0
  0
SPLINE
  5
134
100
AcDbEntity
  8
Layer_1
 62
5
100
AcDbSpline
 70
8
 71
3
 72
8
 73
4
 74
0
 40
0
 40
0
 40
0
 40
0
 40
1
 40
1
 40
1
 40
1
 10
14.067272
 20
35.367562
 30
0.0
 10
13.703182
 20
35.003475
 30
0.0
 10
13.209370
 20
34.798936
 30
0.0
 10
12.694471
 20
34.798942
 30
0.0
  0
SPLINE
  5
135
100
AcDbEntity
  8
Layer_1
 62
5
100
AcDbSpline
 70
8
 71
3
 72
8
 73
4
 74
0
 40
0
 40
0
 40
0
 40
0
 40
1
 40
1
 40
1
 40
1
 10
12.694471
 20
34.798942
 30
0.0
 10
11.622260
 20
34.798946
 30
0.0
 10
10.753064
 20
35.668146
 30
0.0
 10
10.753065
 20
36.740357
 30
0.0
  0
SPLINE
  5
136
100
AcDbEntity
  8
Layer_1
 62
5
100
AcDbSpline
 70
8
 71
3
 72
8
 73
4
 74
0
 40
0
 40
0
 40
0
 40
0
 40
1
 40
1
 40
1
 40
1
 10
10.753065
 20
36.740357
 30
0.0
 10
10.753064
 20
37.812569
 30
0.0
 10
11.622260
 20
38.681769
 30
0.0
 10
12.694471
 20
38.681772
 30
0.0
  0
LINE
  5
137
100
AcDbEntity
  8
Layer_1
 62
5
100
AcDbLine
 10
12.694471
 20
38.681772
 30
0.0
 11
12.694471
 21
38.681772
 31
0.0
  0
SPLINE
  5
138
100
AcDbEntity
  8
Layer_1
 62
5
100
AcDbSpline
 70
8
 71
3
 72
8
 73
4
 74
0
 40
0
 40
0
 40
0
 40
0
 40
1
 40
1
 40
1
 40
1
 10
12.694471
 20
246.681800
 30
0.0
 10
13.209370
 20
246.681805
 30
0.0
 10
13.703182
 20
246.477267
 30
0.0
 10
14.067272
 20
246.113180
 30
0.0
  0
SPLINE
  5
139
100
AcDbEntity
  8
Layer_1
 62
5
100
AcDbSpline
 70
8
 71
3
 72
8
 73
4
 74
0
 40
0
 40
0
 40
0
 40
0
 40
1
 40
1
 40
1
 40
1
 10
14.067272
 20
246.113180
 30
0.0
 10
14.431363
 20
245.749093
 30
0.0
 10
14.635907
 20
245.255283
 30
0.0
 10
14.635906
 20
244.740384
 30
0.0
  0
SPLINE
  5
13a
100
AcDbEntity
  8
Layer_1
 62
5
100
AcDbSpline
 70
8
 71
3
 72
8
 73
4
 74
0
 40
0
 40
0
 40
0
 40
0
 40
1
 40
1
 40
1
 40
1
 10
14.635906
 20
244.740384
 30
0.0
 10
14.635907
 20
244.225485
 30
0.0
 10
14.431363
 20
243.731676
 30
0.0
 10
14.067272
 20
243.367589
 30
0.0
  0
SPLINE
  5
13b
100
AcDbEntity
  8
Layer_1
 62
5
100
AcDbSpline
 70
8
 71
3
 72
8
 73
4
 74
0
 40
0
 40
0
 40
0
 40
0
 40
1
 40
1
 40
1
 40
1
 10
14.067272
 20
243.367589
 30
0.0
 10
13.703182
 20
243.003502
 30
0.0
 10
13.209370
 20
242.798963
 30
0.0
 10
12.694471
 20
242.798969
 30
0.0
  0
SPLINE
  5
13c
100
AcDbEntity
  8
Layer_1
 62
5
100
AcDbSpline
 70
8
 71
3
 72
8
 73
4
 74
0
 40
0
 40
0
 40
0
 40
0
 40
1
 40
1
 40
1
 40
1
 10
12.694471
 20
242.798969
 30
0.0
 10
11.622260
 20
242.798973
 30
0.0
 10
10.753064
 20
243.668173
 30
0.0
 10
10.753065
 20
244.740384
 30
0.0
  0
SPLINE
  5
13d
100
AcDbEntity
  8
Layer_1
 62
5
100
AcDbSpline
 70
8
 71
3
 72
8
 73
4
 74
0
 40
0
 40
0
 40
0
 40
0
 40
1
 40
1
 40
1
 40
1
 10
10.753065
 20
244.740384
 30
0.0
 10
10.753064
 20
245.812596
 30
0.0
 10
11.622260
 20
246.681796
 30
0.0
 10
12.694471
 20
246.681800
 30
0.0
  0
LINE
  5
13e
100
AcDbEntity
  8
Layer_1
 62
5
100
AcDbLine
 10
12.694471
 20
246.681800
 30
0.0
 11
12.694471
 21
246.681800
 31
0.0
  0
SPLINE
  5
13f
100
AcDbEntity
  8
Layer_1
 62
5
100
AcDbSpline
 70
8
 71
3
 72
8
 73
4
 74
0
 40
0
 40
0
 40
0
 40
0
 40
1
 40
1
 40
1
 40
1
 10
230.081161
 20
74.431787
 30
0.0
 10
231.153372
 20
74.431784
 30
0.0
 10
232.022569
 20
73.562583
 30
0.0
 10
232.022568
 20
72.490372
 30
0.0
  0
SPLINE
  5
140
100
AcDbEntity
  8
Layer_1
 62
5
100
AcDbSpline
 70
8
 71
3
 72
8
 73
4
 74
0
 40
0
 40
0
 40
0
 40
0
 40
1
 40
1
 40
1
 40
1
 10
232.022568
 20
72.490372
 30
0.0
 10
232.022569
 20
71.418161
 30
0.0
 10
231.153372
 20
70.548960
 30
0.0
 10
230.081161
 20
70.548957
 30
0.0
  0
SPLINE
  5
141
100
AcDbEntity
  8
Layer_1
 62
5
100
AcDbSpline
 70
8
 71
3
 72
8
 73
4
 74
0
 40
0
 40
0
 40
0
 40
0
 40
1
 40
1
 40
1
 40
1
 10
230.081161
 20
70.548957
 30
0.0
 10
229.566263
 20
70.548951
 30
0.0
 10
229.072451
 20
70.753490
 30
0.0
 10
228.708360
 20
71.117576
 30
0.0
  0
SPLINE
  5
142
100
AcDbEntity
  8
Layer_1
 62
5
100
AcDbSpline
 70
8
 71
3
 72
8
 73
4
 74
0
 40
0
 40
0
 40
0
 40
0
 40
1
 40
1
 40
1
 40
1
 10
228.708360
 20
71.117576
 30
0.0
 10
228.344270
 20
71.481663
 30
0.0
 10
228.139726
 20
71.975473
 30
0.0
 10
228.139727
 20
72.490372
 30
0.0
  0
SPLINE
  5
143
100
AcDbEntity
  8
Layer_1
 62
5
100
AcDbSpline
 70
8
 71
3
 72
8
 73
4
 74
0
 40
0
 40
0
 40
0
 40
0
 40
1
 40
1
 40
1
 40
1
 10
228.139727
 20
72.490372
 30
0.0
 10
228.139726
 20
73.005271
 30
0.0
 10
228.344270
 20
73.499081
 30
0.0
 10
228.708360
 20
73.863167
 30
0.0
  0
SPLINE
  5
144
100
AcDbEntity
  8
Layer_1
 62
5
100
AcDbSpline
 70
8
 71
3
 72
8
 73
4
 74
0
 40
0
 40
0
 40
0
 40
0
 40
1
 40
1
 40
1
 40
1
 10
228.708360
 20
73.863167
 30
0.0
 10
229.072451
 20
74.227254
 30
0.0
 10
229.566263
 20
74.431793
 30
0.0
 10
230.081161
 20
74.431787
 30
0.0
  0
LINE
  5
145
100
AcDbEntity
  8
Layer_1
 62
5
100
AcDbLine
 10
230.081161
 20
74.431787
 30
0.0
 11
230.081161
 21
74.431787
 31
0.0
  0
SPLINE
  5
146
100
AcDbEntity
  8
Layer_1
 62
5
100
AcDbSpline
 70
8
 71
3
 72
8
 73
4
 74
0
 40
0
 40
0
 40
0
 40
0
 40
1
 40
1
 40
1
 40
1
 10
230.081161
 20
214.431789
 30
0.0
 10
231.153372
 20
214.431786
 30
0.0
 10
232.022568
 20
213.562587
 30
0.0
 10
232.022568
 20
212.490377
 30
0.0
  0
SPLINE
  5
147
100
AcDbEntity
  8
Layer_1
 62
5
100
AcDbSpline
 70
8
 71
3
 72
8
 73
4
 74
0
 40
0
 40
0
 40
0
 40
0
 40
1
 40
1
 40
1
 40
1
 10
232.022568
 20
212.490377
 30
0.0
 10
232.022569
 20
211.418166
 30
0.0
 10
231.153373
 20
210.548966
 30
0.0
 10
230.081161
 20
210.548962
 30
0.0
  0
SPLINE
  5
148
100
AcDbEntity
  8
Layer_1
 62
5
100
AcDbSpline
 70
8
 71
3
 72
8
 73
4
 74
0
 40
0
 40
0
 40
0
 40
0
 40
1
 40
1
 40
1
 40
1
 10
230.081161
 20
210.548962
 30
0.0
 10
229.566263
 20
210.548956
 30
0.0
 10
229.072451
 20
210.753495
 30
0.0
 10
228.708360
 20
211.117582
 30
0.0
  0
SPLINE
  5
149
100
AcDbEntity
  8
Layer_1
 62
5
100
AcDbSpline
 70
8
 71
3
 72
8
 73
4
 74
0
 40
0
 40
0
 40
0
 40
0
 40
1
 40
1
 40
1
 40
1
 10
228.708360
 20
211.117582
 30
0.0
 10
228.344270
 20
211.481668
 30
0.0
 10
228.139726
 20
211.975478
 30
0.0
 10
228.139727
 20
212.490377
 30
0.0
  0
SPLINE
  5
14a
100
AcDbEntity
  8
Layer_1
 62
5
100
AcDbSpline
 70
8
 71
3
 72
8
 73
4
 74
0
 40
0
 40
0
 40
0
 40
0
 40
1
 40
1
 40
1
 40
1
 10
228.139727
 20
212.490377
 30
0.0
 10
228.139727
 20
213.005275
 30
0.0
 10
228.344271
 20
213.499084
 30
0.0
 10
228.708361
 20
213.863170
 30
0.0
  0
SPLINE
  5
14b
100
AcDbEntity
  8
Layer_1
 62
5
100
AcDbSpline
 70
8
 71
3
 72
8
 73
4
 74
0
 40
0
 40
0
 40
0
 40
0
 40
1
 40
1
 40
1
 40
1
 10
228.708361
 20
213.863170
 30
0.0
 10
229.072451
 20
214.227256
 30
0.0
 10
229.566263
 20
214.431795
 30
0.0
 10
230.081161
 20
214.431789
 30
0.0
  0
LINE
  5
14c
100
AcDbEntity
  8
Layer_1
 62
5
100
AcDbLine
 10
230.081161
 20
214.431789
 30
0.0
 11
230.081161
 21
214.431789
 31
0.0
  0
SPLINE
  5
14d
100
AcDbEntity
  8
Layer_1
 62
5
100
AcDbSpline
 70
8
 71
3
 72
8
 73
4
 74
0
 40
0
 40
0
 40
0
 40
0
 40
1
 40
1
 40
1
 40
1
 10
127.081142
 20
214.431792
 30
0.0
 10
127.596041
 20
214.431798
 30
0.0
 10
128.089852
 20
214.227259
 30
0.0
 10
128.453943
 20
213.863172
 30
0.0
  0
SPLINE
  5
14e
100
AcDbEntity
  8
Layer_1
 62
5
100
AcDbSpline
 70
8
 71
3
 72
8
 73
4
 74
0
 40
0
 40
0
 40
0
 40
0
 40
1
 40
1
 40
1
 40
1
 10
128.453943
 20
213.863172
 30
0.0
 10
128.818033
 20
213.499086
 30
0.0
 10
129.022577
 20
213.005276
 30
0.0
 10
129.022577
 20
212.490377
 30
0.0
  0
SPLINE
  5
14f
100
AcDbEntity
  8
Layer_1
 62
5
100
AcDbSpline
 70
8
 71
3
 72
8
 73
4
 74
0
 40
0
 40
0
 40
0
 40
0
 40
1
 40
1
 40
1
 40
1
 10
129.022577
 20
212.490377
 30
0.0
 10
129.022577
 20
211.975478
 30
0.0
 10
128.818033
 20
211.481668
 30
0.0
 10
128.453943
 20
211.117581
 30
0.0
  0
SPLINE
  5
150
100
AcDbEntity
  8
Layer_1
 62
5
100
AcDbSpline
 70
8
 71
3
 72
8
 73
4
 74
0
 40
0
 40
0
 40
0
 40
0
 40
1
 40
1
 40
1
 40
1
 10
128.453943
 20
211.117581
 30
0.0
 10
128.089852
 20
210.753495
 30
0.0
 10
127.596041
 20
210.548956
 30
0.0
 10
127.081142
 20
210.548962
 30
0.0
  0
SPLINE
  5
151
100
AcDbEntity
  8
Layer_1
 62
5
100
AcDbSpline
 70
8
 71
3
 72
8
 73
4
 74
0
 40
0
 40
0
 40
0
 40
0
 40
1
 40
1
 40
1
 40
1
 10
127.081142
 20
210.548962
 30
0.0
 10
126.008931
 20
210.548965
 30
0.0
 10
125.139734
 20
211.418166
 30
0.0
 10
125.139735
 20
212.490377
 30
0.0
  0
SPLINE
  5
152
100
AcDbEntity
  8
Layer_1
 62
5
100
AcDbSpline
 70
8
 71
3
 72
8
 73
4
 74
0
 40
0
 40
0
 40
0
 40
0
 40
1
 40
1
 40
1
 40
1
 10
125.139735
 20
212.490377
 30
0.0
 10
125.139734
 20
213.562588
 30
0.0
 10
126.008931
 20
214.431789
 30
0.0
 10
127.081142
 20
214.431792
 30
0.0
  0
LINE
  5
153
100
AcDbEntity
  8
Layer_1
 62
5
100
AcDbLine
 10
127.081142
 20
214.431792
 30
0.0
 11
127.081142
 21
214.431792
 31
0.0
  0
SPLINE
  5
154
100
AcDbEntity
  8
Layer_1
 62
5
100
AcDbSpline
 70
8
 71
3
 72
8
 73
4
 74
0
 40
0
 40
0
 40
0
 40
0
 40
1
 40
1
 40
1
 40
1
 10
127.081142
 20
74.431787
 30
0.0
 10
127.596041
 20
74.431793
 30
0.0
 10
128.089852
 20
74.227254
 30
0.0
 10
128.453943
 20
73.863167
 30
0.0
  0
SPLINE
  5
155
100
AcDbEntity
  8
Layer_1
 62
5
100
AcDbSpline
 70
8
 71
3
 72
8
 73
4
 74
0
 40
0
 40
0
 40
0
 40
0
 40
1
 40
1
 40
1
 40
1
 10
128.453943
 20
73.863167
 30
0.0
 10
128.818033
 20
73.499081
 30
0.0
 10
129.022577
 20
73.005271
 30
0.0
 10
129.022577
 20
72.490372
 30
0.0
  0
SPLINE
  5
156
100
AcDbEntity
  8
Layer_1
 62
5
100
AcDbSpline
 70
8
 71
3
 72
8
 73
4
 74
0
 40
0
 40
0
 40
0
 40
0
 40
1
 40
1
 40
1
 40
1
 10
129.022577
 20
72.490372
 30
0.0
 10
129.022577
 20
71.975473
 30
0.0
 10
128.818033
 20
71.481663
 30
0.0
 10
128.453943
 20
71.117576
 30
0.0
  0
SPLINE
  5
157
100
AcDbEntity
  8
Layer_1
 62
5
100
AcDbSpline
 70
8
 71
3
 72
8
 73
4
 74
0
 40
0
 40
0
 40
0
 40
0
 40
1
 40
1
 40
1
 40
1
 10
128.453943
 20
71.117576
 30
0.0
 10
128.089852
 20
70.753490
 30
0.0
 10
127.596041
 20
70.548951
 30
0.0
 10
127.081142
 20
70.548957
 30
0.0
  0
SPLINE
  5
158
100
AcDbEntity
  8
Layer_1
 62
5
100
AcDbSpline
 70
8
 71
3
 72
8
 73
4
 74
0
 40
0
 40
0
 40
0
 40
0
 40
1
 40
1
 40
1
 40
1
 10
127.081142
 20
70.548957
 30
0.0
 10
126.008931
 20
70.548960
 30
0.0
 10
125.139734
 20
71.418161
 30
0.0
 10
125.139735
 20
72.490372
 30
0.0
  0
SPLINE
  5
159
100
AcDbEntity
  8
Layer_1
 62
5
100
AcDbSpline
 70
8
 71
3
 72
8
 73
4
 74
0
 40
0
 40
0
 40
0
 40
0
 40
1
 40
1
 40
1
 40
1
 10
125.139735
 20
72.490372
 30
0.0
 10
125.139734
 20
73.562583
 30
0.0
 10
126.008931
 20
74.431784
 30
0.0
 10
127.081142
 20
74.431787
 30
0.0
  0
LINE
  5
15a
100
AcDbEntity
  8
Layer_1
 62
5
100
AcDbLine
 10
127.081142
 20
74.431787
 30
0.0
 11
127.081142
 21
74.431787
 31
0.0
  0
LINE
  5
15b
100
AcDbEntity
  8
Layer_1
 62
7
100
AcDbLine
 10
333.597196
 20
30.264362
 30
0.0
 11
238.694499
 21
30.264362
 31
0.0
  0
LINE
  5
15c
100
AcDbEntity
  8
Layer_1
 62
7
100
AcDbLine
 10
238.694499
 20
30.264362
 30
0.0
 11
223.694501
 21
30.264080
 31
0.0
  0
LINE
  5
15d
100
AcDbEntity
  8
Layer_1
 62
7
100
AcDbLine
 10
223.694501
 20
30.264080
 30
0.0
 11
115.133800
 21
30.264080
 31
0.0
  0
LINE
  5
15e
100
AcDbEntity
  8
Layer_1
 62
7
100
AcDbLine
 10
115.133800
 20
30.264080
 30
0.0
 11
20.458235
 21
30.264080
 31
0.0
  0
LINE
  5
15f
100
AcDbEntity
  8
Layer_1
 62
7
100
AcDbLine
 10
20.458235
 20
30.264080
 30
0.0
 11
11.133811
 21
25.397302
 31
0.0
  0
LINE
  5
160
100
AcDbEntity
  8
Layer_1
 62
7
100
AcDbLine
 10
11.133811
 20
25.397302
 30
0.0
 11
2.635168
 21
27.897302
 31
0.0
  0
LINE
  5
161
100
AcDbEntity
  8
Layer_1
 62
7
100
AcDbLine
 10
2.635168
 20
27.897302
 30
0.0
 11
0.135159
 21
36.397302
 31
0.0
  0
LINE
  5
162
100
AcDbEntity
  8
Layer_1
 62
7
100
AcDbLine
 10
0.135159
 20
36.397302
 30
0.0
 11
30.135155
 21
65.397301
 31
0.0
  0
LINE
  5
163
100
AcDbEntity
  8
Layer_1
 62
7
100
AcDbLine
 10
30.135155
 20
65.397301
 30
0.0
 11
55.135162
 21
87.897301
 31
0.0
  0
LINE
  5
164
100
AcDbEntity
  8
Layer_1
 62
7
100
AcDbLine
 10
55.135162
 20
87.897301
 30
0.0
 11
55.135162
 21
111.456673
 31
0.0
  0
LINE
  5
165
100
AcDbEntity
  8
Layer_1
 62
7
100
AcDbLine
 10
55.135162
 20
111.456673
 30
0.0
 11
55.135162
 21
121.647300
 31
0.0
  0
LINE
  5
166
100
AcDbEntity
  8
Layer_1
 62
7
100
AcDbLine
 10
55.135162
 20
121.647300
 30
0.0
 11
55.135162
 21
131.022301
 31
0.0
  0
LINE
  5
167
100
AcDbEntity
  8
Layer_1
 62
7
100
AcDbLine
 10
55.135162
 20
131.022301
 30
0.0
 11
55.135162
 21
141.144960
 31
0.0
  0
LINE
  5
168
100
AcDbEntity
  8
Layer_1
 62
7
100
AcDbLine
 10
55.135162
 20
141.144960
 30
0.0
 11
55.135162
 21
149.772302
 31
0.0
  0
LINE
  5
169
100
AcDbEntity
  8
Layer_1
 62
7
100
AcDbLine
 10
55.135162
 20
149.772302
 30
0.0
 11
55.135162
 21
159.147301
 31
0.0
  0
LINE
  5
16a
100
AcDbEntity
  8
Layer_1
 62
7
100
AcDbLine
 10
55.135162
 20
159.147301
 30
0.0
 11
55.135162
 21
168.522302
 31
0.0
  0
LINE
  5
16b
100
AcDbEntity
  8
Layer_1
 62
7
100
AcDbLine
 10
55.135162
 20
168.522302
 30
0.0
 11
55.135162
 21
190.397302
 31
0.0
  0
LINE
  5
16c
100
AcDbEntity
  8
Layer_1
 62
7
100
AcDbLine
 10
55.135162
 20
190.397302
 30
0.0
 11
30.135155
 21
215.397303
 31
0.0
  0
LINE
  5
16d
100
AcDbEntity
  8
Layer_1
 62
7
100
AcDbLine
 10
30.135155
 20
215.397303
 30
0.0
 11
0.135159
 21
244.397301
 31
0.0
  0
LINE
  5
16e
100
AcDbEntity
  8
Layer_1
 62
7
100
AcDbLine
 10
0.135159
 20
244.397301
 30
0.0
 11
2.635168
 21
252.897301
 31
0.0
  0
LINE
  5
16f
100
AcDbEntity
  8
Layer_1
 62
7
100
AcDbLine
 10
2.635168
 20
252.897301
 30
0.0
 11
11.135165
 21
255.397302
 31
0.0
  0
LINE
  5
170
100
AcDbEntity
  8
Layer_1
 62
7
100
AcDbLine
 10
11.135165
 20
255.397302
 30
0.0
 11
21.024034
 21
250.264080
 31
0.0
  0
LINE
  5
171
100
AcDbEntity
  8
Layer_1
 62
7
100
AcDbLine
 10
21.024034
 20
250.264080
 30
0.0
 11
223.694501
 21
250.264080
 31
0.0
  0
LINE
  5
172
100
AcDbEntity
  8
Layer_1
 62
7
100
AcDbLine
 10
223.694501
 20
250.264080
 30
0.0
 11
238.694499
 21
250.264362
 31
0.0
  0
LINE
  5
173
100
AcDbEntity
  8
Layer_1
 62
7
100
AcDbLine
 10
238.694499
 20
250.264362
 30
0.0
 11
333.694507
 21
250.264362
 31
0.0
  0
LINE
  5
174
100
AcDbEntity
  8
Layer_1
 62
7
100
AcDbLine
 10
333.694507
 20
250.264362
 30
0.0
 11
333.694507
 21
235.264361
 31
0.0
  0
LINE
  5
175
100
AcDbEntity
  8
Layer_1
 62
7
100
AcDbLine
 10
333.694507
 20
235.264361
 30
0.0
 11
323.694498
 21
225.264362
 31
0.0
  0
LINE
  5
176
100
AcDbEntity
  8
Layer_1
 62
7
100
AcDbLine
 10
323.712194
 20
225.264362
 30
0.0
 11
264.338932
 21
225.264362
 31
0.0
  0
LINE
  5
177
100
AcDbEntity
  8
Layer_1
 62
7
100
AcDbLine
 10
264.338932
 20
225.264362
 30
0.0
 11
253.694497
 21
215.264362
 31
0.0
  0
LINE
  5
178
100
AcDbEntity
  8
Layer_1
 62
7
100
AcDbLine
 10
253.694497
 20
215.264362
 30
0.0
 11
253.694497
 21
65.264360
 31
0.0
  0
LINE
  5
179
100
AcDbEntity
  8
Layer_1
 62
7
100
AcDbLine
 10
253.694497
 20
65.264360
 30
0.0
 11
264.903376
 21
55.264360
 31
0.0
  0
LINE
  5
17a
100
AcDbEntity
  8
Layer_1
 62
7
100
AcDbLine
 10
264.903376
 20
55.264360
 30
0.0
 11
282.243392
 21
55.264360
 31
0.0
  0
LINE
  5
17b
100
AcDbEntity
  8
Layer_1
 62
7
100
AcDbLine
 10
282.243392
 20
55.264360
 30
0.0
 11
323.694498
 21
55.264360
 31
0.0
  0
LINE
  5
17c
100
AcDbEntity
  8
Layer_1
 62
7
100
AcDbLine
 10
323.694498
 20
55.264360
 30
0.0
 11
333.694507
 21
45.264360
 31
0.0
  0
LINE
  5
17d
100
AcDbEntity
  8
Layer_1
 62
7
100
AcDbLine
 10
333.694507
 20
45.264360
 30
0.0
 11
333.694507
 21
30.264362
 31
0.0
  0
LINE
  5
17e
100
AcDbEntity
  8
Layer_1
 62
5
100
AcDbLine
 10
67.655801
 20
90.371173
 30
0.0
 11
65.186357
 21
89.026209
 31
0.0
  0
LINE
  5
17f
100
AcDbEntity
  8
Layer_1
 62
5
100
AcDbLine
 10
65.186357
 20
89.026209
 30
0.0
 11
67.677850
 21
87.659195
 31
0.0
  0
LINE
  5
180
100
AcDbEntity
  8
Layer_1
 62
5
100
AcDbLine
 10
67.677850
 20
87.659195
 30
0.0
 11
67.677850
 21
86.986710
 31
0.0
  0
LINE
  5
181
100
AcDbEntity
  8
Layer_1
 62
5
100
AcDbLine
 10
67.677850
 20
86.986710
 30
0.0
 11
64.546947
 21
88.739576
 31
0.0
  0
LINE
  5
182
100
AcDbEntity
  8
Layer_1
 62
5
100
AcDbLine
 10
64.546947
 20
88.739576
 30
0.0
 11
64.546947
 21
89.329375
 31
0.0
  0
LINE
  5
183
100
AcDbEntity
  8
Layer_1
 62
5
100
AcDbLine
 10
64.546947
 20
89.329375
 30
0.0
 11
67.655801
 21
91.071217
 31
0.0
  0
LINE
  5
184
100
AcDbEntity
  8
Layer_1
 62
5
100
AcDbLine
 10
67.655801
 20
91.071217
 30
0.0
 11
67.655801
 21
90.371173
 31
0.0
  0
LINE
  5
185
100
AcDbEntity
  8
Layer_1
 62
5
100
AcDbLine
 10
67.655801
 20
90.371173
 30
0.0
 11
67.655801
 21
90.371173
 31
0.0
  0
LINE
  5
186
100
AcDbEntity
  8
Layer_1
 62
5
100
AcDbLine
 10
65.572207
 20
94.025731
 30
0.0
 11
67.815653
 21
94.025731
 31
0.0
  0
LINE
  5
187
100
AcDbEntity
  8
Layer_1
 62
5
100
AcDbLine
 10
67.815653
 20
94.025731
 30
0.0
 11
67.815653
 21
96.864488
 31
0.0
  0
LINE
  5
188
100
AcDbEntity
  8
Layer_1
 62
5
100
AcDbLine
 10
67.815653
 20
96.864488
 30
0.0
 11
68.752720
 21
96.864488
 31
0.0
  0
LINE
  5
189
100
AcDbEntity
  8
Layer_1
 62
5
100
AcDbLine
 10
68.752720
 20
96.864488
 30
0.0
 11
68.752720
 21
94.025731
 31
0.0
  0
LINE
  5
18a
100
AcDbEntity
  8
Layer_1
 62
5
100
AcDbLine
 10
68.752720
 20
94.025731
 30
0.0
 11
72.655323
 21
94.025731
 31
0.0
  0
LINE
  5
18b
100
AcDbEntity
  8
Layer_1
 62
5
100
AcDbLine
 10
72.655323
 20
94.025731
 30
0.0
 11
72.655323
 21
92.923300
 31
0.0
  0
LINE
  5
18c
100
AcDbEntity
  8
Layer_1
 62
5
100
AcDbLine
 10
72.655323
 20
92.923300
 30
0.0
 11
64.580020
 21
92.923300
 31
0.0
  0
LINE
  5
18d
100
AcDbEntity
  8
Layer_1
 62
5
100
AcDbLine
 10
64.580020
 20
92.923300
 30
0.0
 11
64.580020
 21
97.911798
 31
0.0
  0
LINE
  5
18e
100
AcDbEntity
  8
Layer_1
 62
5
100
AcDbLine
 10
64.580020
 20
97.911798
 30
0.0
 11
65.572207
 21
97.911798
 31
0.0
  0
LINE
  5
18f
100
AcDbEntity
  8
Layer_1
 62
5
100
AcDbLine
 10
65.572207
 20
97.911798
 30
0.0
 11
65.572207
 21
94.025731
 31
0.0
  0
LINE
  5
190
100
AcDbEntity
  8
Layer_1
 62
5
100
AcDbLine
 10
65.572207
 20
94.025731
 30
0.0
 11
65.572207
 21
94.025731
 31
0.0
  0
SPLINE
  5
191
100
AcDbEntity
  8
Layer_1
 62
5
100
AcDbSpline
 70
8
 71
3
 72
8
 73
4
 74
0
 40
0
 40
0
 40
0
 40
0
 40
1
 40
1
 40
1
 40
1
 10
67.760532
 20
101.979766
 30
0.0
 10
67.602517
 20
101.751932
 30
0.0
 10
67.523509
 20
101.522259
 30
0.0
 10
67.523509
 20
101.290749
 30
0.0
  0
SPLINE
  5
192
100
AcDbEntity
  8
Layer_1
 62
5
100
AcDbSpline
 70
8
 71
3
 72
8
 73
4
 74
0
 40
0
 40
0
 40
0
 40
0
 40
1
 40
1
 40
1
 40
1
 10
67.523509
 20
101.290749
 30
0.0
 10
67.523509
 20
100.919596
 30
0.0
 10
67.694386
 20
100.594379
 30
0.0
 10
68.036139
 20
100.315098
 30
0.0
  0
SPLINE
  5
193
100
AcDbEntity
  8
Layer_1
 62
5
100
AcDbSpline
 70
8
 71
3
 72
8
 73
4
 74
0
 40
0
 40
0
 40
0
 40
0
 40
1
 40
1
 40
1
 40
1
 10
68.036139
 20
100.315098
 30
0.0
 10
68.377893
 20
100.039489
 30
0.0
 10
68.789466
 20
99.901685
 30
0.0
 10
69.270860
 20
99.901685
 30
0.0
  0
LINE
  5
194
100
AcDbEntity
  8
Layer_1
 62
5
100
AcDbLine
 10
69.270860
 20
99.901685
 30
0.0
 11
72.655323
 21
99.901685
 31
0.0
  0
LINE
  5
195
100
AcDbEntity
  8
Layer_1
 62
5
100
AcDbLine
 10
72.655323
 20
99.901685
 30
0.0
 11
72.655323
 21
98.854375
 31
0.0
  0
LINE
  5
196
100
AcDbEntity
  8
Layer_1
 62
5
100
AcDbLine
 10
72.655323
 20
98.854375
 30
0.0
 11
66.751808
 21
98.854375
 31
0.0
  0
LINE
  5
197
100
AcDbEntity
  8
Layer_1
 62
5
100
AcDbLine
 10
66.751808
 20
98.854375
 30
0.0
 11
66.751808
 21
99.901685
 31
0.0
  0
LINE
  5
198
100
AcDbEntity
  8
Layer_1
 62
5
100
AcDbLine
 10
66.751808
 20
99.901685
 30
0.0
 11
67.694386
 21
99.901685
 31
0.0
  0
SPLINE
  5
199
100
AcDbEntity
  8
Layer_1
 62
5
100
AcDbSpline
 70
8
 71
3
 72
8
 73
4
 74
0
 40
0
 40
0
 40
0
 40
0
 40
1
 40
1
 40
1
 40
1
 10
67.694386
 20
99.901685
 30
0.0
 10
66.992505
 20
100.283861
 30
0.0
 10
66.641565
 20
100.851613
 30
0.0
 10
66.641565
 20
101.604941
 30
0.0
  0
SPLINE
  5
19a
100
AcDbEntity
  8
Layer_1
 62
5
100
AcDbSpline
 70
8
 71
3
 72
8
 73
4
 74
0
 40
0
 40
0
 40
0
 40
0
 40
1
 40
1
 40
1
 40
1
 10
66.641565
 20
101.604941
 30
0.0
 10
66.641565
 20
101.792354
 30
0.0
 10
66.674638
 20
102.062449
 30
0.0
 10
66.740783
 20
102.415226
 30
0.0
  0
LINE
  5
19b
100
AcDbEntity
  8
Layer_1
 62
5
100
AcDbLine
 10
66.740783
 20
102.415226
 30
0.0
 11
67.760532
 21
101.979766
 31
0.0
  0
LINE
  5
19c
100
AcDbEntity
  8
Layer_1
 62
5
100
AcDbLine
 10
67.760532
 20
101.979766
 30
0.0
 11
67.760532
 21
101.979766
 31
0.0
  0
SPLINE
  5
19d
100
AcDbEntity
  8
Layer_1
 62
5
100
AcDbSpline
 70
8
 71
3
 72
8
 73
4
 74
0
 40
0
 40
0
 40
0
 40
0
 40
1
 40
1
 40
1
 40
1
 10
69.689785
 20
102.773516
 30
0.0
 10
68.778443
 20
102.773516
 30
0.0
 10
68.043489
 20
103.017888
 30
0.0
 10
67.484924
 20
103.506633
 30
0.0
  0
SPLINE
  5
19e
100
AcDbEntity
  8
Layer_1
 62
5
100
AcDbSpline
 70
8
 71
3
 72
8
 73
4
 74
0
 40
0
 40
0
 40
0
 40
0
 40
1
 40
1
 40
1
 40
1
 10
67.484924
 20
103.506633
 30
0.0
 10
66.922685
 20
103.999053
 30
0.0
 10
66.641565
 20
104.645812
 30
0.0
 10
66.641565
 20
105.446911
 30
0.0
  0
SPLINE
  5
19f
100
AcDbEntity
  8
Layer_1
 62
5
100
AcDbSpline
 70
8
 71
3
 72
8
 73
4
 74
0
 40
0
 40
0
 40
0
 40
0
 40
1
 40
1
 40
1
 40
1
 10
66.641565
 20
105.446911
 30
0.0
 10
66.641565
 20
106.292108
 30
0.0
 10
66.911660
 20
106.948055
 30
0.0
 10
67.451851
 20
107.414751
 30
0.0
  0
SPLINE
  5
1a0
100
AcDbEntity
  8
Layer_1
 62
5
100
AcDbSpline
 70
8
 71
3
 72
8
 73
4
 74
0
 40
0
 40
0
 40
0
 40
0
 40
1
 40
1
 40
1
 40
1
 10
67.451851
 20
107.414751
 30
0.0
 10
67.988367
 20
107.881445
 30
0.0
 10
68.734345
 20
108.114792
 30
0.0
 10
69.689785
 20
108.114792
 30
0.0
  0
SPLINE
  5
1a1
100
AcDbEntity
  8
Layer_1
 62
5
100
AcDbSpline
 70
8
 71
3
 72
8
 73
4
 74
0
 40
0
 40
0
 40
0
 40
0
 40
1
 40
1
 40
1
 40
1
 10
69.689785
 20
108.114792
 30
0.0
 10
70.641550
 20
108.114792
 30
0.0
 10
71.393040
 20
107.875932
 30
0.0
 10
71.944255
 20
107.398213
 30
0.0
  0
SPLINE
  5
1a2
100
AcDbEntity
  8
Layer_1
 62
5
100
AcDbSpline
 70
8
 71
3
 72
8
 73
4
 74
0
 40
0
 40
0
 40
0
 40
0
 40
1
 40
1
 40
1
 40
1
 10
71.944255
 20
107.398213
 30
0.0
 10
72.491797
 20
106.920493
 30
0.0
 10
72.765567
 20
106.270059
 30
0.0
 10
72.765567
 20
105.446911
 30
0.0
  0
SPLINE
  5
1a3
100
AcDbEntity
  8
Layer_1
 62
5
100
AcDbSpline
 70
8
 71
3
 72
8
 73
4
 74
0
 40
0
 40
0
 40
0
 40
0
 40
1
 40
1
 40
1
 40
1
 10
72.765567
 20
105.446911
 30
0.0
 10
72.765567
 20
104.605388
 30
0.0
 10
72.488122
 20
103.949442
 30
0.0
 10
71.933232
 20
103.479072
 30
0.0
  0
SPLINE
  5
1a4
100
AcDbEntity
  8
Layer_1
 62
5
100
AcDbSpline
 70
8
 71
3
 72
8
 73
4
 74
0
 40
0
 40
0
 40
0
 40
0
 40
1
 40
1
 40
1
 40
1
 10
71.933232
 20
103.479072
 30
0.0
 10
71.378342
 20
103.008701
 30
0.0
 10
70.630526
 20
102.773516
 30
0.0
 10
69.689785
 20
102.773516
 30
0.0
  0
LINE
  5
1a5
100
AcDbEntity
  8
Layer_1
 62
5
100
AcDbLine
 10
69.689785
 20
102.773516
 30
0.0
 11
69.689785
 21
102.773516
 31
0.0
  0
SPLINE
  5
1a6
100
AcDbEntity
  8
Layer_1
 62
5
100
AcDbSpline
 70
8
 71
3
 72
8
 73
4
 74
0
 40
0
 40
0
 40
0
 40
0
 40
1
 40
1
 40
1
 40
1
 10
69.689785
 20
103.875947
 30
0.0
 10
71.170716
 20
103.875947
 30
0.0
 10
71.911182
 20
104.399601
 30
0.0
 10
71.911182
 20
105.446911
 30
0.0
  0
SPLINE
  5
1a7
100
AcDbEntity
  8
Layer_1
 62
5
100
AcDbSpline
 70
8
 71
3
 72
8
 73
4
 74
0
 40
0
 40
0
 40
0
 40
0
 40
1
 40
1
 40
1
 40
1
 10
71.911182
 20
105.446911
 30
0.0
 10
71.911182
 20
105.935656
 30
0.0
 10
71.712745
 20
106.317832
 30
0.0
 10
71.315871
 20
106.593439
 30
0.0
  0
SPLINE
  5
1a8
100
AcDbEntity
  8
Layer_1
 62
5
100
AcDbSpline
 70
8
 71
3
 72
8
 73
4
 74
0
 40
0
 40
0
 40
0
 40
0
 40
1
 40
1
 40
1
 40
1
 10
71.315871
 20
106.593439
 30
0.0
 10
70.918995
 20
106.872720
 30
0.0
 10
70.376966
 20
107.012361
 30
0.0
 10
69.689785
 20
107.012361
 30
0.0
  0
SPLINE
  5
1a9
100
AcDbEntity
  8
Layer_1
 62
5
100
AcDbSpline
 70
8
 71
3
 72
8
 73
4
 74
0
 40
0
 40
0
 40
0
 40
0
 40
1
 40
1
 40
1
 40
1
 10
69.689785
 20
107.012361
 30
0.0
 10
68.227227
 20
107.012361
 30
0.0
 10
67.495948
 20
106.490544
 30
0.0
 10
67.495948
 20
105.446911
 30
0.0
  0
SPLINE
  5
1aa
100
AcDbEntity
  8
Layer_1
 62
5
100
AcDbSpline
 70
8
 71
3
 72
8
 73
4
 74
0
 40
0
 40
0
 40
0
 40
0
 40
1
 40
1
 40
1
 40
1
 10
67.495948
 20
105.446911
 30
0.0
 10
67.495948
 20
104.969192
 30
0.0
 10
67.690711
 20
104.587016
 30
0.0
 10
68.080237
 20
104.300383
 30
0.0
  0
SPLINE
  5
1ab
100
AcDbEntity
  8
Layer_1
 62
5
100
AcDbSpline
 70
8
 71
3
 72
8
 73
4
 74
0
 40
0
 40
0
 40
0
 40
0
 40
1
 40
1
 40
1
 40
1
 10
68.080237
 20
104.300383
 30
0.0
 10
68.469763
 20
104.017426
 30
0.0
 10
69.006279
 20
103.875947
 30
0.0
 10
69.689785
 20
103.875947
 30
0.0
  0
LINE
  5
1ac
100
AcDbEntity
  8
Layer_1
 62
5
100
AcDbLine
 10
69.689785
 20
103.875947
 30
0.0
 11
69.689785
 21
103.875947
 31
0.0
  0
LINE
  5
1ad
100
AcDbEntity
  8
Layer_1
 62
5
100
AcDbLine
 10
72.655323
 20
112.855244
 30
0.0
 11
69.221251
 21
112.855244
 31
0.0
  0
SPLINE
  5
1ae
100
AcDbEntity
  8
Layer_1
 62
5
100
AcDbSpline
 70
8
 71
3
 72
8
 73
4
 74
0
 40
0
 40
0
 40
0
 40
0
 40
1
 40
1
 40
1
 40
1
 10
69.221251
 20
112.855244
 30
0.0
 10
68.592867
 20
112.855244
 30
0.0
 10
68.153732
 20
112.759700
 30
0.0
 10
67.903848
 20
112.568611
 30
0.0
  0
SPLINE
  5
1af
100
AcDbEntity
  8
Layer_1
 62
5
100
AcDbSpline
 70
8
 71
3
 72
8
 73
4
 74
0
 40
0
 40
0
 40
0
 40
0
 40
1
 40
1
 40
1
 40
1
 10
67.903848
 20
112.568611
 30
0.0
 10
67.650289
 20
112.381199
 30
0.0
 10
67.523509
 20
112.065169
 30
0.0
 10
67.523509
 20
111.620522
 30
0.0
  0
SPLINE
  5
1b0
100
AcDbEntity
  8
Layer_1
 62
5
100
AcDbSpline
 70
8
 71
3
 72
8
 73
4
 74
0
 40
0
 40
0
 40
0
 40
0
 40
1
 40
1
 40
1
 40
1
 10
67.523509
 20
111.620522
 30
0.0
 10
67.523509
 20
111.381663
 30
0.0
 10
67.595167
 20
111.131778
 30
0.0
 10
67.738483
 20
110.870869
 30
0.0
  0
SPLINE
  5
1b1
100
AcDbEntity
  8
Layer_1
 62
5
100
AcDbSpline
 70
8
 71
3
 72
8
 73
4
 74
0
 40
0
 40
0
 40
0
 40
0
 40
1
 40
1
 40
1
 40
1
 10
67.738483
 20
110.870869
 30
0.0
 10
67.881799
 20
110.609961
 30
0.0
 10
68.058188
 20
110.409685
 30
0.0
 10
68.267650
 20
110.270044
 30
0.0
  0
LINE
  5
1b2
100
AcDbEntity
  8
Layer_1
 62
5
100
AcDbLine
 10
68.267650
 20
110.270044
 30
0.0
 11
72.655323
 21
110.270044
 31
0.0
  0
LINE
  5
1b3
100
AcDbEntity
  8
Layer_1
 62
5
100
AcDbLine
 10
72.655323
 20
110.270044
 30
0.0
 11
72.655323
 21
109.222737
 31
0.0
  0
LINE
  5
1b4
100
AcDbEntity
  8
Layer_1
 62
5
100
AcDbLine
 10
72.655323
 20
109.222737
 30
0.0
 11
66.751808
 21
109.222737
 31
0.0
  0
LINE
  5
1b5
100
AcDbEntity
  8
Layer_1
 62
5
100
AcDbLine
 10
66.751808
 20
109.222737
 30
0.0
 11
66.751808
 21
109.939316
 31
0.0
  0
LINE
  5
1b6
100
AcDbEntity
  8
Layer_1
 62
5
100
AcDbLine
 10
66.751808
 20
109.939316
 30
0.0
 11
67.512485
 21
110.270044
 31
0.0
  0
SPLINE
  5
1b7
100
AcDbEntity
  8
Layer_1
 62
5
100
AcDbSpline
 70
8
 71
3
 72
8
 73
4
 74
0
 40
0
 40
0
 40
0
 40
0
 40
1
 40
1
 40
1
 40
1
 10
67.512485
 20
110.270044
 30
0.0
 10
66.931872
 20
110.615472
 30
0.0
 10
66.641565
 20
111.179550
 30
0.0
 10
66.641565
 20
111.962276
 30
0.0
  0
SPLINE
  5
1b8
100
AcDbEntity
  8
Layer_1
 62
5
100
AcDbSpline
 70
8
 71
3
 72
8
 73
4
 74
0
 40
0
 40
0
 40
0
 40
0
 40
1
 40
1
 40
1
 40
1
 10
66.641565
 20
111.962276
 30
0.0
 10
66.641565
 20
113.255795
 30
0.0
 10
67.427965
 20
113.902554
 30
0.0
 10
69.000765
 20
113.902554
 30
0.0
  0
LINE
  5
1b9
100
AcDbEntity
  8
Layer_1
 62
5
100
AcDbLine
 10
69.000765
 20
113.902554
 30
0.0
 11
72.655323
 21
113.902554
 31
0.0
  0
LINE
  5
1ba
100
AcDbEntity
  8
Layer_1
 62
5
100
AcDbLine
 10
72.655323
 20
113.902554
 30
0.0
 11
72.655323
 21
112.855244
 31
0.0
  0
LINE
  5
1bb
100
AcDbEntity
  8
Layer_1
 62
5
100
AcDbLine
 10
72.655323
 20
112.855244
 30
0.0
 11
72.655323
 21
112.855244
 31
0.0
  0
LINE
  5
1bc
100
AcDbEntity
  8
Layer_1
 62
5
100
AcDbLine
 10
67.578631
 20
115.771173
 30
0.0
 11
67.578631
 21
115.087667
 31
0.0
  0
LINE
  5
1bd
100
AcDbEntity
  8
Layer_1
 62
5
100
AcDbLine
 10
67.578631
 20
115.087667
 30
0.0
 11
66.751808
 21
115.087667
 31
0.0
  0
LINE
  5
1be
100
AcDbEntity
  8
Layer_1
 62
5
100
AcDbLine
 10
66.751808
 20
115.087667
 30
0.0
 11
66.751808
 21
115.771173
 31
0.0
  0
LINE
  5
1bf
100
AcDbEntity
  8
Layer_1
 62
5
100
AcDbLine
 10
66.751808
 20
115.771173
 30
0.0
 11
65.517086
 21
115.771173
 31
0.0
  0
LINE
  5
1c0
100
AcDbEntity
  8
Layer_1
 62
5
100
AcDbLine
 10
65.517086
 20
115.771173
 30
0.0
 11
65.114698
 21
116.818483
 31
0.0
  0
LINE
  5
1c1
100
AcDbEntity
  8
Layer_1
 62
5
100
AcDbLine
 10
65.114698
 20
116.818483
 30
0.0
 11
66.751808
 21
116.818483
 31
0.0
  0
LINE
  5
1c2
100
AcDbEntity
  8
Layer_1
 62
5
100
AcDbLine
 10
66.751808
 20
116.818483
 30
0.0
 11
66.751808
 21
118.439056
 31
0.0
  0
LINE
  5
1c3
100
AcDbEntity
  8
Layer_1
 62
5
100
AcDbLine
 10
66.751808
 20
118.439056
 30
0.0
 11
67.578631
 21
118.439056
 31
0.0
  0
LINE
  5
1c4
100
AcDbEntity
  8
Layer_1
 62
5
100
AcDbLine
 10
67.578631
 20
118.439056
 30
0.0
 11
67.578631
 21
116.818483
 31
0.0
  0
LINE
  5
1c5
100
AcDbEntity
  8
Layer_1
 62
5
100
AcDbLine
 10
67.578631
 20
116.818483
 30
0.0
 11
70.511097
 21
116.818483
 31
0.0
  0
SPLINE
  5
1c6
100
AcDbEntity
  8
Layer_1
 62
5
100
AcDbSpline
 70
8
 71
3
 72
8
 73
4
 74
0
 40
0
 40
0
 40
0
 40
0
 40
1
 40
1
 40
1
 40
1
 10
70.511097
 20
116.818483
 30
0.0
 10
71.007189
 20
116.818483
 30
0.0
 10
71.359967
 20
116.901164
 30
0.0
 10
71.569430
 20
117.066528
 30
0.0
  0
SPLINE
  5
1c7
100
AcDbEntity
  8
Layer_1
 62
5
100
AcDbSpline
 70
8
 71
3
 72
8
 73
4
 74
0
 40
0
 40
0
 40
0
 40
0
 40
1
 40
1
 40
1
 40
1
 10
71.569430
 20
117.066528
 30
0.0
 10
71.778892
 20
117.235568
 30
0.0
 10
71.883623
 20
117.505664
 30
0.0
 10
71.883623
 20
117.876816
 30
0.0
  0
SPLINE
  5
1c8
100
AcDbEntity
  8
Layer_1
 62
5
100
AcDbSpline
 70
8
 71
3
 72
8
 73
4
 74
0
 40
0
 40
0
 40
0
 40
0
 40
1
 40
1
 40
1
 40
1
 10
71.883623
 20
117.876816
 30
0.0
 10
71.883623
 20
118.145074
 30
0.0
 10
71.815639
 20
118.422519
 30
0.0
 10
71.679672
 20
118.709151
 30
0.0
  0
LINE
  5
1c9
100
AcDbEntity
  8
Layer_1
 62
5
100
AcDbLine
 10
71.679672
 20
118.709151
 30
0.0
 11
72.600202
 21
118.863490
 31
0.0
  0
SPLINE
  5
1ca
100
AcDbEntity
  8
Layer_1
 62
5
100
AcDbSpline
 70
8
 71
3
 72
8
 73
4
 74
0
 40
0
 40
0
 40
0
 40
0
 40
1
 40
1
 40
1
 40
1
 10
72.600202
 20
118.863490
 30
0.0
 10
72.710445
 20
118.429867
 30
0.0
 10
72.765567
 20
117.953985
 30
0.0
 10
72.765567
 20
117.435844
 30
0.0
  0
SPLINE
  5
1cb
100
AcDbEntity
  8
Layer_1
 62
5
100
AcDbSpline
 70
8
 71
3
 72
8
 73
4
 74
0
 40
0
 40
0
 40
0
 40
0
 40
1
 40
1
 40
1
 40
1
 10
72.765567
 20
117.435844
 30
0.0
 10
72.765567
 20
116.969148
 30
0.0
 10
72.592853
 20
116.574110
 30
0.0
 10
72.247424
 20
116.250731
 30
0.0
  0
SPLINE
  5
1cc
100
AcDbEntity
  8
Layer_1
 62
5
100
AcDbSpline
 70
8
 71
3
 72
8
 73
4
 74
0
 40
0
 40
0
 40
0
 40
0
 40
1
 40
1
 40
1
 40
1
 10
72.247424
 20
116.250731
 30
0.0
 10
71.898321
 20
115.931026
 30
0.0
 10
71.459186
 20
115.771173
 30
0.0
 10
70.930019
 20
115.771173
 30
0.0
  0
LINE
  5
1cd
100
AcDbEntity
  8
Layer_1
 62
5
100
AcDbLine
 10
70.930019
 20
115.771173
 30
0.0
 11
67.578631
 21
115.771173
 31
0.0
  0
LINE
  5
1ce
100
AcDbEntity
  8
Layer_1
 62
5
100
AcDbLine
 10
67.578631
 20
115.771173
 30
0.0
 11
67.578631
 21
115.771173
 31
0.0
  0
LINE
  5
1cf
100
AcDbEntity
  8
Layer_1
 62
5
100
AcDbLine
 10
90.987581
 20
131.128808
 30
0.0
 11
101.247075
 21
128.365841
 31
0.0
  0
LINE
  5
1d0
100
AcDbEntity
  8
Layer_1
 62
5
100
AcDbLine
 10
101.247075
 20
128.365841
 30
0.0
 11
101.247075
 21
125.437509
 31
0.0
  0
LINE
  5
1d1
100
AcDbEntity
  8
Layer_1
 62
5
100
AcDbLine
 10
101.247075
 20
125.437509
 30
0.0
 11
94.563590
 21
123.597829
 31
0.0
  0
LINE
  5
1d2
100
AcDbEntity
  8
Layer_1
 62
5
100
AcDbLine
 10
94.563590
 20
123.597829
 30
0.0
 11
101.247075
 21
121.806378
 31
0.0
  0
LINE
  5
1d3
100
AcDbEntity
  8
Layer_1
 62
5
100
AcDbLine
 10
101.247075
 20
121.806378
 30
0.0
 11
101.247075
 21
118.878049
 31
0.0
  0
LINE
  5
1d4
100
AcDbEntity
  8
Layer_1
 62
5
100
AcDbLine
 10
101.247075
 20
118.878049
 30
0.0
 11
90.987581
 21
116.115082
 31
0.0
  0
LINE
  5
1d5
100
AcDbEntity
  8
Layer_1
 62
5
100
AcDbLine
 10
90.987581
 20
116.115082
 30
0.0
 11
90.987581
 21
118.878049
 31
0.0
  0
LINE
  5
1d6
100
AcDbEntity
  8
Layer_1
 62
5
100
AcDbLine
 10
90.987581
 20
118.878049
 30
0.0
 11
98.050025
 21
120.455903
 31
0.0
  0
LINE
  5
1d7
100
AcDbEntity
  8
Layer_1
 62
5
100
AcDbLine
 10
98.050025
 20
120.455903
 30
0.0
 11
90.987581
 21
122.343814
 31
0.0
  0
LINE
  5
1d8
100
AcDbEntity
  8
Layer_1
 62
5
100
AcDbLine
 10
90.987581
 20
122.343814
 30
0.0
 11
90.987581
 21
124.982758
 31
0.0
  0
LINE
  5
1d9
100
AcDbEntity
  8
Layer_1
 62
5
100
AcDbLine
 10
90.987581
 20
124.982758
 30
0.0
 11
98.050025
 21
126.781098
 31
0.0
  0
LINE
  5
1da
100
AcDbEntity
  8
Layer_1
 62
5
100
AcDbLine
 10
98.050025
 20
126.781098
 30
0.0
 11
90.987581
 21
128.434743
 31
0.0
  0
LINE
  5
1db
100
AcDbEntity
  8
Layer_1
 62
5
100
AcDbLine
 10
90.987581
 20
128.434743
 30
0.0
 11
90.987581
 21
131.128808
 31
0.0
  0
LINE
  5
1dc
100
AcDbEntity
  8
Layer_1
 62
5
100
AcDbLine
 10
90.987581
 20
131.128808
 30
0.0
 11
90.987581
 21
131.128808
 31
0.0
  0
LINE
  5
1dd
100
AcDbEntity
  8
Layer_1
 62
5
100
AcDbLine
 10
101.247075
 20
137.579050
 30
0.0
 11
101.247075
 21
135.098582
 31
0.0
  0
LINE
  5
1de
100
AcDbEntity
  8
Layer_1
 62
5
100
AcDbLine
 10
101.247075
 20
135.098582
 30
0.0
 11
93.509389
 21
135.098582
 31
0.0
  0
LINE
  5
1df
100
AcDbEntity
  8
Layer_1
 62
5
100
AcDbLine
 10
93.509389
 20
135.098582
 30
0.0
 11
93.509389
 21
137.579050
 31
0.0
  0
LINE
  5
1e0
100
AcDbEntity
  8
Layer_1
 62
5
100
AcDbLine
 10
93.509389
 20
137.579050
 30
0.0
 11
101.247075
 21
137.579050
 31
0.0
  0
LINE
  5
1e1
100
AcDbEntity
  8
Layer_1
 62
5
100
AcDbLine
 10
101.247075
 20
137.579050
 30
0.0
 11
101.247075
 21
137.579050
 31
0.0
  0
LINE
  5
1e2
100
AcDbEntity
  8
Layer_1
 62
5
100
AcDbLine
 10
92.406958
 20
137.647952
 30
0.0
 11
92.406958
 21
135.029680
 31
0.0
  0
LINE
  5
1e3
100
AcDbEntity
  8
Layer_1
 62
5
100
AcDbLine
 10
92.406958
 20
135.029680
 30
0.0
 11
90.525939
 21
135.029680
 31
0.0
  0
LINE
  5
1e4
100
AcDbEntity
  8
Layer_1
 62
5
100
AcDbLine
 10
90.525939
 20
135.029680
 30
0.0
 11
90.525939
 21
137.647952
 31
0.0
  0
LINE
  5
1e5
100
AcDbEntity
  8
Layer_1
 62
5
100
AcDbLine
 10
90.525939
 20
137.647952
 30
0.0
 11
92.406958
 21
137.647952
 31
0.0
  0
LINE
  5
1e6
100
AcDbEntity
  8
Layer_1
 62
5
100
AcDbLine
 10
92.406958
 20
137.647952
 30
0.0
 11
92.406958
 21
137.647952
 31
0.0
  0
LINE
  5
1e7
100
AcDbEntity
  8
Layer_1
 62
5
100
AcDbLine
 10
101.247075
 20
144.738986
 30
0.0
 11
101.247075
 21
142.258518
 31
0.0
  0
LINE
  5
1e8
100
AcDbEntity
  8
Layer_1
 62
5
100
AcDbLine
 10
101.247075
 20
142.258518
 30
0.0
 11
90.525939
 21
142.258518
 31
0.0
  0
LINE
  5
1e9
100
AcDbEntity
  8
Layer_1
 62
5
100
AcDbLine
 10
90.525939
 20
142.258518
 30
0.0
 11
90.525939
 21
144.738986
 31
0.0
  0
LINE
  5
1ea
100
AcDbEntity
  8
Layer_1
 62
5
100
AcDbLine
 10
90.525939
 20
144.738986
 30
0.0
 11
101.247075
 21
144.738986
 31
0.0
  0
LINE
  5
1eb
100
AcDbEntity
  8
Layer_1
 62
5
100
AcDbLine
 10
101.247075
 20
144.738986
 30
0.0
 11
101.247075
 21
144.738986
 31
0.0
  0
SPLINE
  5
1ec
100
AcDbEntity
  8
Layer_1
 62
5
100
AcDbSpline
 70
8
 71
3
 72
8
 73
4
 74
0
 40
0
 40
0
 40
0
 40
0
 40
1
 40
1
 40
1
 40
1
 10
98.794166
 20
156.143278
 30
0.0
 10
99.593429
 20
156.143278
 30
0.0
 10
100.238810
 20
155.784988
 30
0.0
 10
100.730310
 20
155.068409
 30
0.0
  0
SPLINE
  5
1ed
100
AcDbEntity
  8
Layer_1
 62
5
100
AcDbSpline
 70
8
 71
3
 72
8
 73
4
 74
0
 40
0
 40
0
 40
0
 40
0
 40
1
 40
1
 40
1
 40
1
 10
100.730310
 20
155.068409
 30
0.0
 10
101.217216
 20
154.351828
 30
0.0
 10
101.460670
 20
153.371124
 30
0.0
 10
101.460670
 20
152.126296
 30
0.0
  0
SPLINE
  5
1ee
100
AcDbEntity
  8
Layer_1
 62
5
100
AcDbSpline
 70
8
 71
3
 72
8
 73
4
 74
0
 40
0
 40
0
 40
0
 40
0
 40
1
 40
1
 40
1
 40
1
 10
101.460670
 20
152.126296
 30
0.0
 10
101.460670
 20
151.437277
 30
0.0
 10
101.396362
 20
150.812567
 30
0.0
 10
101.267745
 20
150.252166
 30
0.0
  0
SPLINE
  5
1ef
100
AcDbEntity
  8
Layer_1
 62
5
100
AcDbSpline
 70
8
 71
3
 72
8
 73
4
 74
0
 40
0
 40
0
 40
0
 40
0
 40
1
 40
1
 40
1
 40
1
 10
101.267745
 20
150.252166
 30
0.0
 10
101.139129
 20
149.691763
 30
0.0
 10
100.996732
 20
149.241603
 30
0.0
 10
100.840554
 20
148.901687
 30
0.0
  0
LINE
  5
1f0
100
AcDbEntity
  8
Layer_1
 62
5
100
AcDbLine
 10
100.840554
 20
148.901687
 30
0.0
 11
98.801055
 21
148.901687
 31
0.0
  0
LINE
  5
1f1
100
AcDbEntity
  8
Layer_1
 62
5
100
AcDbLine
 10
98.801055
 20
148.901687
 30
0.0
 11
98.801055
 21
149.129062
 31
0.0
  0
SPLINE
  5
1f2
100
AcDbEntity
  8
Layer_1
 62
5
100
AcDbSpline
 70
8
 71
3
 72
8
 73
4
 74
0
 40
0
 40
0
 40
0
 40
0
 40
1
 40
1
 40
1
 40
1
 10
98.801055
 20
149.129062
 30
0.0
 10
98.888332
 20
149.253086
 30
0.0
 10
98.984795
 20
149.395484
 30
0.0
 10
99.090446
 20
149.556257
 30
0.0
  0
SPLINE
  5
1f3
100
AcDbEntity
  8
Layer_1
 62
5
100
AcDbSpline
 70
8
 71
3
 72
8
 73
4
 74
0
 40
0
 40
0
 40
0
 40
0
 40
1
 40
1
 40
1
 40
1
 10
99.090446
 20
149.556257
 30
0.0
 10
99.191501
 20
149.721620
 30
0.0
 10
99.301743
 20
149.953590
 30
0.0
 10
99.421174
 20
150.252166
 30
0.0
  0
SPLINE
  5
1f4
100
AcDbEntity
  8
Layer_1
 62
5
100
AcDbSpline
 70
8
 71
3
 72
8
 73
4
 74
0
 40
0
 40
0
 40
0
 40
0
 40
1
 40
1
 40
1
 40
1
 10
99.421174
 20
150.252166
 30
0.0
 10
99.526823
 20
150.509398
 30
0.0
 10
99.618692
 20
150.801082
 30
0.0
 10
99.696781
 20
151.127218
 30
0.0
  0
SPLINE
  5
1f5
100
AcDbEntity
  8
Layer_1
 62
5
100
AcDbSpline
 70
8
 71
3
 72
8
 73
4
 74
0
 40
0
 40
0
 40
0
 40
0
 40
1
 40
1
 40
1
 40
1
 10
99.696781
 20
151.127218
 30
0.0
 10
99.770277
 20
151.453354
 30
0.0
 10
99.807025
 20
151.802458
 30
0.0
 10
99.807025
 20
152.174528
 30
0.0
  0
SPLINE
  5
1f6
100
AcDbEntity
  8
Layer_1
 62
5
100
AcDbSpline
 70
8
 71
3
 72
8
 73
4
 74
0
 40
0
 40
0
 40
0
 40
0
 40
1
 40
1
 40
1
 40
1
 10
99.807025
 20
152.174528
 30
0.0
 10
99.807025
 20
152.661435
 30
0.0
 10
99.754200
 20
153.022022
 30
0.0
 10
99.648549
 20
153.256289
 30
0.0
  0
SPLINE
  5
1f7
100
AcDbEntity
  8
Layer_1
 62
5
100
AcDbSpline
 70
8
 71
3
 72
8
 73
4
 74
0
 40
0
 40
0
 40
0
 40
0
 40
1
 40
1
 40
1
 40
1
 10
99.648549
 20
153.256289
 30
0.0
 10
99.538307
 20
153.490554
 30
0.0
 10
99.377537
 20
153.607686
 30
0.0
 10
99.166237
 20
153.607686
 30
0.0
  0
SPLINE
  5
1f8
100
AcDbEntity
  8
Layer_1
 62
5
100
AcDbSpline
 70
8
 71
3
 72
8
 73
4
 74
0
 40
0
 40
0
 40
0
 40
0
 40
1
 40
1
 40
1
 40
1
 10
99.166237
 20
153.607686
 30
0.0
 10
98.977904
 20
153.607686
 30
0.0
 10
98.842397
 20
153.538785
 30
0.0
 10
98.759716
 20
153.400981
 30
0.0
  0
SPLINE
  5
1f9
100
AcDbEntity
  8
Layer_1
 62
5
100
AcDbSpline
 70
8
 71
3
 72
8
 73
4
 74
0
 40
0
 40
0
 40
0
 40
0
 40
1
 40
1
 40
1
 40
1
 10
98.759716
 20
153.400981
 30
0.0
 10
98.672439
 20
153.263178
 30
0.0
 10
98.589757
 20
153.001351
 30
0.0
 10
98.511668
 20
152.615500
 30
0.0
  0
SPLINE
  5
1fa
100
AcDbEntity
  8
Layer_1
 62
5
100
AcDbSpline
 70
8
 71
3
 72
8
 73
4
 74
0
 40
0
 40
0
 40
0
 40
0
 40
1
 40
1
 40
1
 40
1
 10
98.511668
 20
152.615500
 30
0.0
 10
98.470328
 20
152.431762
 30
0.0
 10
98.426691
 20
152.181419
 30
0.0
 10
98.380756
 20
151.864470
 30
0.0
  0
SPLINE
  5
1fb
100
AcDbEntity
  8
Layer_1
 62
5
100
AcDbSpline
 70
8
 71
3
 72
8
 73
4
 74
0
 40
0
 40
0
 40
0
 40
0
 40
1
 40
1
 40
1
 40
1
 10
98.380756
 20
151.864470
 30
0.0
 10
98.330227
 20
151.552114
 30
0.0
 10
98.270512
 20
151.267319
 30
0.0
 10
98.201610
 20
151.010085
 30
0.0
  0
SPLINE
  5
1fc
100
AcDbEntity
  8
Layer_1
 62
5
100
AcDbSpline
 70
8
 71
3
 72
8
 73
4
 74
0
 40
0
 40
0
 40
0
 40
0
 40
1
 40
1
 40
1
 40
1
 10
98.201610
 20
151.010085
 30
0.0
 10
98.017872
 20
150.307286
 30
0.0
 10
97.733078
 20
149.785928
 30
0.0
 10
97.347227
 20
149.446012
 30
0.0
  0
SPLINE
  5
1fd
100
AcDbEntity
  8
Layer_1
 62
5
100
AcDbSpline
 70
8
 71
3
 72
8
 73
4
 74
0
 40
0
 40
0
 40
0
 40
0
 40
1
 40
1
 40
1
 40
1
 10
97.347227
 20
149.446012
 30
0.0
 10
96.956782
 20
149.106096
 30
0.0
 10
96.472172
 20
148.936138
 30
0.0
 10
95.893396
 20
148.936138
 30
0.0
  0
SPLINE
  5
1fe
100
AcDbEntity
  8
Layer_1
 62
5
100
AcDbSpline
 70
8
 71
3
 72
8
 73
4
 74
0
 40
0
 40
0
 40
0
 40
0
 40
1
 40
1
 40
1
 40
1
 10
95.893396
 20
148.936138
 30
0.0
 10
95.149255
 20
148.936138
 30
0.0
 10
94.531435
 20
149.287538
 30
0.0
 10
94.039936
 20
149.990337
 30
0.0
  0
SPLINE
  5
1ff
100
AcDbEntity
  8
Layer_1
 62
5
100
AcDbSpline
 70
8
 71
3
 72
8
 73
4
 74
0
 40
0
 40
0
 40
0
 40
0
 40
1
 40
1
 40
1
 40
1
 10
94.039936
 20
149.990337
 30
0.0
 10
93.543842
 20
150.697731
 30
0.0
 10
93.295795
 20
151.662358
 30
0.0
 10
93.295795
 20
152.884218
 30
0.0
  0
SPLINE
  5
200
100
AcDbEntity
  8
Layer_1
 62
5
100
AcDbSpline
 70
8
 71
3
 72
8
 73
4
 74
0
 40
0
 40
0
 40
0
 40
0
 40
1
 40
1
 40
1
 40
1
 10
93.295795
 20
152.884218
 30
0.0
 10
93.295795
 20
153.462994
 30
0.0
 10
93.355509
 20
154.016506
 30
0.0
 10
93.474938
 20
154.544754
 30
0.0
  0
SPLINE
  5
201
100
AcDbEntity
  8
Layer_1
 62
5
100
AcDbSpline
 70
8
 71
3
 72
8
 73
4
 74
0
 40
0
 40
0
 40
0
 40
0
 40
1
 40
1
 40
1
 40
1
 10
93.474938
 20
154.544754
 30
0.0
 10
93.589776
 20
155.077596
 30
0.0
 10
93.713800
 20
155.493303
 30
0.0
 10
93.847008
 20
155.791877
 30
0.0
  0
LINE
  5
202
100
AcDbEntity
  8
Layer_1
 62
5
100
AcDbLine
 10
93.847008
 20
155.791877
 30
0.0
 11
95.803824
 21
155.791877
 31
0.0
  0
LINE
  5
203
100
AcDbEntity
  8
Layer_1
 62
5
100
AcDbLine
 10
95.803824
 20
155.791877
 30
0.0
 11
95.803824
 21
155.578283
 31
0.0
  0
SPLINE
  5
204
100
AcDbEntity
  8
Layer_1
 62
5
100
AcDbSpline
 70
8
 71
3
 72
8
 73
4
 74
0
 40
0
 40
0
 40
0
 40
0
 40
1
 40
1
 40
1
 40
1
 10
95.803824
 20
155.578283
 30
0.0
 10
95.551183
 20
155.210805
 30
0.0
 10
95.346774
 20
154.790503
 30
0.0
 10
95.190598
 20
154.317376
 30
0.0
  0
SPLINE
  5
205
100
AcDbEntity
  8
Layer_1
 62
5
100
AcDbSpline
 70
8
 71
3
 72
8
 73
4
 74
0
 40
0
 40
0
 40
0
 40
0
 40
1
 40
1
 40
1
 40
1
 10
95.190598
 20
154.317376
 30
0.0
 10
95.029825
 20
153.848844
 30
0.0
 10
94.949439
 20
153.373421
 30
0.0
 10
94.949439
 20
152.891107
 30
0.0
  0
SPLINE
  5
206
100
AcDbEntity
  8
Layer_1
 62
5
100
AcDbSpline
 70
8
 71
3
 72
8
 73
4
 74
0
 40
0
 40
0
 40
0
 40
0
 40
1
 40
1
 40
1
 40
1
 10
94.949439
 20
152.891107
 30
0.0
 10
94.949439
 20
152.491477
 30
0.0
 10
95.004561
 20
152.153857
 30
0.0
 10
95.114804
 20
151.878248
 30
0.0
  0
SPLINE
  5
207
100
AcDbEntity
  8
Layer_1
 62
5
100
AcDbSpline
 70
8
 71
3
 72
8
 73
4
 74
0
 40
0
 40
0
 40
0
 40
0
 40
1
 40
1
 40
1
 40
1
 10
95.114804
 20
151.878248
 30
0.0
 10
95.225048
 20
151.607236
 30
0.0
 10
95.381226
 20
151.471730
 30
0.0
 10
95.583338
 20
151.471730
 30
0.0
  0
SPLINE
  5
208
100
AcDbEntity
  8
Layer_1
 62
5
100
AcDbSpline
 70
8
 71
3
 72
8
 73
4
 74
0
 40
0
 40
0
 40
0
 40
0
 40
1
 40
1
 40
1
 40
1
 10
95.583338
 20
151.471730
 30
0.0
 10
95.767076
 20
151.471730
 30
0.0
 10
95.907177
 20
151.533741
 30
0.0
 10
96.003641
 20
151.657762
 30
0.0
  0
SPLINE
  5
209
100
AcDbEntity
  8
Layer_1
 62
5
100
AcDbSpline
 70
8
 71
3
 72
8
 73
4
 74
0
 40
0
 40
0
 40
0
 40
0
 40
1
 40
1
 40
1
 40
1
 10
96.003641
 20
151.657762
 30
0.0
 10
96.100102
 20
151.781786
 30
0.0
 10
96.196565
 20
152.073471
 30
0.0
 10
96.293028
 20
152.532818
 30
0.0
  0
SPLINE
  5
20a
100
AcDbEntity
  8
Layer_1
 62
5
100
AcDbSpline
 70
8
 71
3
 72
8
 73
4
 74
0
 40
0
 40
0
 40
0
 40
0
 40
1
 40
1
 40
1
 40
1
 10
96.293028
 20
152.532818
 30
0.0
 10
96.343556
 20
152.785457
 30
0.0
 10
96.394084
 20
153.056472
 30
0.0
 10
96.444613
 20
153.345860
 30
0.0
  0
SPLINE
  5
20b
100
AcDbEntity
  8
Layer_1
 62
5
100
AcDbSpline
 70
8
 71
3
 72
8
 73
4
 74
0
 40
0
 40
0
 40
0
 40
0
 40
1
 40
1
 40
1
 40
1
 10
96.444613
 20
153.345860
 30
0.0
 10
96.490547
 20
153.639842
 30
0.0
 10
96.550262
 20
153.933823
 30
0.0
 10
96.623756
 20
154.227805
 30
0.0
  0
SPLINE
  5
20c
100
AcDbEntity
  8
Layer_1
 62
5
100
AcDbSpline
 70
8
 71
3
 72
8
 73
4
 74
0
 40
0
 40
0
 40
0
 40
0
 40
1
 40
1
 40
1
 40
1
 10
96.623756
 20
154.227805
 30
0.0
 10
96.793714
 20
154.880077
 30
0.0
 10
97.062432
 20
155.362390
 30
0.0
 10
97.429910
 20
155.674744
 30
0.0
  0
SPLINE
  5
20d
100
AcDbEntity
  8
Layer_1
 62
5
100
AcDbSpline
 70
8
 71
3
 72
8
 73
4
 74
0
 40
0
 40
0
 40
0
 40
0
 40
1
 40
1
 40
1
 40
1
 10
97.429910
 20
155.674744
 30
0.0
 10
97.792793
 20
155.987100
 30
0.0
 10
98.247545
 20
156.143278
 30
0.0
 10
98.794166
 20
156.143278
 30
0.0
  0
LINE
  5
20e
100
AcDbEntity
  8
Layer_1
 62
5
100
AcDbLine
 10
98.794166
 20
156.143278
 30
0.0
 11
98.794166
 21
156.143278
 31
0.0
  0
SPLINE
  5
20f
100
AcDbEntity
  8
Layer_1
 62
5
100
AcDbSpline
 70
8
 71
3
 72
8
 73
4
 74
0
 40
0
 40
0
 40
0
 40
0
 40
1
 40
1
 40
1
 40
1
 10
97.381678
 20
168.043663
 30
0.0
 10
98.654066
 20
168.043663
 30
0.0
 10
99.657736
 20
167.671594
 30
0.0
 10
100.392690
 20
166.927455
 30
0.0
  0
SPLINE
  5
210
100
AcDbEntity
  8
Layer_1
 62
5
100
AcDbSpline
 70
8
 71
3
 72
8
 73
4
 74
0
 40
0
 40
0
 40
0
 40
0
 40
1
 40
1
 40
1
 40
1
 10
100.392690
 20
166.927455
 30
0.0
 10
101.123051
 20
166.187907
 30
0.0
 10
101.488232
 20
165.147488
 30
0.0
 10
101.488232
 20
163.806198
 30
0.0
  0
SPLINE
  5
211
100
AcDbEntity
  8
Layer_1
 62
5
100
AcDbSpline
 70
8
 71
3
 72
8
 73
4
 74
0
 40
0
 40
0
 40
0
 40
0
 40
1
 40
1
 40
1
 40
1
 10
101.488232
 20
163.806198
 30
0.0
 10
101.488232
 20
162.464907
 30
0.0
 10
101.123051
 20
161.422191
 30
0.0
 10
100.392690
 20
160.678050
 30
0.0
  0
SPLINE
  5
212
100
AcDbEntity
  8
Layer_1
 62
5
100
AcDbSpline
 70
8
 71
3
 72
8
 73
4
 74
0
 40
0
 40
0
 40
0
 40
0
 40
1
 40
1
 40
1
 40
1
 10
100.392690
 20
160.678050
 30
0.0
 10
99.657736
 20
159.938504
 30
0.0
 10
98.654066
 20
159.568730
 30
0.0
 10
97.381678
 20
159.568730
 30
0.0
  0
SPLINE
  5
213
100
AcDbEntity
  8
Layer_1
 62
5
100
AcDbSpline
 70
8
 71
3
 72
8
 73
4
 74
0
 40
0
 40
0
 40
0
 40
0
 40
1
 40
1
 40
1
 40
1
 10
97.381678
 20
159.568730
 30
0.0
 10
96.100101
 20
159.568730
 30
0.0
 10
95.094133
 20
159.940801
 30
0.0
 10
94.363774
 20
160.684942
 30
0.0
  0
SPLINE
  5
214
100
AcDbEntity
  8
Layer_1
 62
5
100
AcDbSpline
 70
8
 71
3
 72
8
 73
4
 74
0
 40
0
 40
0
 40
0
 40
0
 40
1
 40
1
 40
1
 40
1
 10
94.363774
 20
160.684942
 30
0.0
 10
93.633413
 20
161.433676
 30
0.0
 10
93.268233
 20
162.474094
 30
0.0
 10
93.268233
 20
163.806198
 30
0.0
  0
SPLINE
  5
215
100
AcDbEntity
  8
Layer_1
 62
5
100
AcDbSpline
 70
8
 71
3
 72
8
 73
4
 74
0
 40
0
 40
0
 40
0
 40
0
 40
1
 40
1
 40
1
 40
1
 10
93.268233
 20
163.806198
 30
0.0
 10
93.268233
 20
165.156675
 30
0.0
 10
93.635710
 20
166.199390
 30
0.0
 10
94.370663
 20
166.934344
 30
0.0
  0
SPLINE
  5
216
100
AcDbEntity
  8
Layer_1
 62
5
100
AcDbSpline
 70
8
 71
3
 72
8
 73
4
 74
0
 40
0
 40
0
 40
0
 40
0
 40
1
 40
1
 40
1
 40
1
 10
94.370663
 20
166.934344
 30
0.0
 10
95.105617
 20
167.673890
 30
0.0
 10
96.109289
 20
168.043663
 30
0.0
 10
97.381678
 20
168.043663
 30
0.0
  0
LINE
  5
217
100
AcDbEntity
  8
Layer_1
 62
5
100
AcDbLine
 10
97.381678
 20
168.043663
 30
0.0
 11
97.381678
 21
168.043663
 31
0.0
  0
SPLINE
  5
218
100
AcDbEntity
  8
Layer_1
 62
5
100
AcDbSpline
 70
8
 71
3
 72
8
 73
4
 74
0
 40
0
 40
0
 40
0
 40
0
 40
1
 40
1
 40
1
 40
1
 10
99.262700
 20
164.991309
 30
0.0
 10
99.065181
 20
165.152081
 30
0.0
 10
98.828617
 20
165.271512
 30
0.0
 10
98.553010
 20
165.349601
 30
0.0
  0
SPLINE
  5
219
100
AcDbEntity
  8
Layer_1
 62
5
100
AcDbSpline
 70
8
 71
3
 72
8
 73
4
 74
0
 40
0
 40
0
 40
0
 40
0
 40
1
 40
1
 40
1
 40
1
 10
98.553010
 20
165.349601
 30
0.0
 10
98.272809
 20
165.432283
 30
0.0
 10
97.886958
 20
165.473624
 30
0.0
 10
97.395459
 20
165.473624
 30
0.0
  0
SPLINE
  5
21a
100
AcDbEntity
  8
Layer_1
 62
5
100
AcDbSpline
 70
8
 71
3
 72
8
 73
4
 74
0
 40
0
 40
0
 40
0
 40
0
 40
1
 40
1
 40
1
 40
1
 10
97.395459
 20
165.473624
 30
0.0
 10
96.940705
 20
165.473624
 30
0.0
 10
96.559447
 20
165.432283
 30
0.0
 10
96.251686
 20
165.349601
 30
0.0
  0
SPLINE
  5
21b
100
AcDbEntity
  8
Layer_1
 62
5
100
AcDbSpline
 70
8
 71
3
 72
8
 73
4
 74
0
 40
0
 40
0
 40
0
 40
0
 40
1
 40
1
 40
1
 40
1
 10
96.251686
 20
165.349601
 30
0.0
 10
95.943924
 20
165.266918
 30
0.0
 10
95.698175
 20
165.152080
 30
0.0
 10
95.514437
 20
165.005090
 30
0.0
  0
SPLINE
  5
21c
100
AcDbEntity
  8
Layer_1
 62
5
100
AcDbSpline
 70
8
 71
3
 72
8
 73
4
 74
0
 40
0
 40
0
 40
0
 40
0
 40
1
 40
1
 40
1
 40
1
 10
95.514437
 20
165.005090
 30
0.0
 10
95.326104
 20
164.858099
 30
0.0
 10
95.192893
 20
164.681251
 30
0.0
 10
95.114804
 20
164.474546
 30
0.0
  0
SPLINE
  5
21d
100
AcDbEntity
  8
Layer_1
 62
5
100
AcDbSpline
 70
8
 71
3
 72
8
 73
4
 74
0
 40
0
 40
0
 40
0
 40
0
 40
1
 40
1
 40
1
 40
1
 10
95.114804
 20
164.474546
 30
0.0
 10
95.036715
 20
164.267841
 30
0.0
 10
94.997671
 20
164.045058
 30
0.0
 10
94.997671
 20
163.806198
 30
0.0
  0
SPLINE
  5
21e
100
AcDbEntity
  8
Layer_1
 62
5
100
AcDbSpline
 70
8
 71
3
 72
8
 73
4
 74
0
 40
0
 40
0
 40
0
 40
0
 40
1
 40
1
 40
1
 40
1
 10
94.997671
 20
163.806198
 30
0.0
 10
94.997671
 20
163.567337
 30
0.0
 10
95.029825
 20
163.353741
 30
0.0
 10
95.094134
 20
163.165410
 30
0.0
  0
SPLINE
  5
21f
100
AcDbEntity
  8
Layer_1
 62
5
100
AcDbSpline
 70
8
 71
3
 72
8
 73
4
 74
0
 40
0
 40
0
 40
0
 40
0
 40
1
 40
1
 40
1
 40
1
 10
95.094134
 20
163.165410
 30
0.0
 10
95.158443
 20
162.981672
 30
0.0
 10
95.287060
 20
162.804824
 30
0.0
 10
95.479986
 20
162.634866
 30
0.0
  0
SPLINE
  5
220
100
AcDbEntity
  8
Layer_1
 62
5
100
AcDbSpline
 70
8
 71
3
 72
8
 73
4
 74
0
 40
0
 40
0
 40
0
 40
0
 40
1
 40
1
 40
1
 40
1
 10
95.479986
 20
162.634866
 30
0.0
 10
95.659129
 20
162.483281
 30
0.0
 10
95.904879
 20
162.361554
 30
0.0
 10
96.217235
 20
162.269685
 30
0.0
  0
SPLINE
  5
221
100
AcDbEntity
  8
Layer_1
 62
5
100
AcDbSpline
 70
8
 71
3
 72
8
 73
4
 74
0
 40
0
 40
0
 40
0
 40
0
 40
1
 40
1
 40
1
 40
1
 10
96.217235
 20
162.269685
 30
0.0
 10
96.529591
 20
162.182408
 30
0.0
 10
96.922332
 20
162.138770
 30
0.0
 10
97.395459
 20
162.138770
 30
0.0
  0
SPLINE
  5
222
100
AcDbEntity
  8
Layer_1
 62
5
100
AcDbSpline
 70
8
 71
3
 72
8
 73
4
 74
0
 40
0
 40
0
 40
0
 40
0
 40
1
 40
1
 40
1
 40
1
 10
97.395459
 20
162.138770
 30
0.0
 10
97.818057
 20
162.138770
 30
0.0
 10
98.185534
 20
162.177815
 30
0.0
 10
98.497890
 20
162.255904
 30
0.0
  0
SPLINE
  5
223
100
AcDbEntity
  8
Layer_1
 62
5
100
AcDbSpline
 70
8
 71
3
 72
8
 73
4
 74
0
 40
0
 40
0
 40
0
 40
0
 40
1
 40
1
 40
1
 40
1
 10
98.497890
 20
162.255904
 30
0.0
 10
98.805651
 20
162.333993
 30
0.0
 10
99.053697
 20
162.448830
 30
0.0
 10
99.242028
 20
162.600415
 30
0.0
  0
SPLINE
  5
224
100
AcDbEntity
  8
Layer_1
 62
5
100
AcDbSpline
 70
8
 71
3
 72
8
 73
4
 74
0
 40
0
 40
0
 40
0
 40
0
 40
1
 40
1
 40
1
 40
1
 10
99.242028
 20
162.600415
 30
0.0
 10
99.421173
 20
162.747406
 30
0.0
 10
99.552087
 20
162.921957
 30
0.0
 10
99.634771
 20
163.124067
 30
0.0
  0
SPLINE
  5
225
100
AcDbEntity
  8
Layer_1
 62
5
100
AcDbSpline
 70
8
 71
3
 72
8
 73
4
 74
0
 40
0
 40
0
 40
0
 40
0
 40
1
 40
1
 40
1
 40
1
 10
99.634771
 20
163.124067
 30
0.0
 10
99.717453
 20
163.330774
 30
0.0
 10
99.758794
 20
163.565041
 30
0.0
 10
99.758794
 20
163.826868
 30
0.0
  0
SPLINE
  5
226
100
AcDbEntity
  8
Layer_1
 62
5
100
AcDbSpline
 70
8
 71
3
 72
8
 73
4
 74
0
 40
0
 40
0
 40
0
 40
0
 40
1
 40
1
 40
1
 40
1
 10
99.758794
 20
163.826868
 30
0.0
 10
99.758794
 20
164.051948
 30
0.0
 10
99.722045
 20
164.265544
 30
0.0
 10
99.648549
 20
164.467657
 30
0.0
  0
SPLINE
  5
227
100
AcDbEntity
  8
Layer_1
 62
5
100
AcDbSpline
 70
8
 71
3
 72
8
 73
4
 74
0
 40
0
 40
0
 40
0
 40
0
 40
1
 40
1
 40
1
 40
1
 10
99.648549
 20
164.467657
 30
0.0
 10
99.570462
 20
164.674362
 30
0.0
 10
99.441846
 20
164.848913
 30
0.0
 10
99.262700
 20
164.991309
 30
0.0
  0
LINE
  5
228
100
AcDbEntity
  8
Layer_1
 62
5
100
AcDbLine
 10
99.262700
 20
164.991309
 30
0.0
 11
99.262700
 21
164.991309
 31
0.0
  0
LINE
  5
229
100
AcDbEntity
  8
Layer_1
 62
5
100
AcDbLine
 10
101.247075
 20
179.944049
 30
0.0
 11
101.247075
 21
177.449800
 31
0.0
  0
LINE
  5
22a
100
AcDbEntity
  8
Layer_1
 62
5
100
AcDbLine
 10
101.247075
 20
177.449800
 30
0.0
 11
97.409237
 21
177.449800
 31
0.0
  0
SPLINE
  5
22b
100
AcDbEntity
  8
Layer_1
 62
5
100
AcDbSpline
 70
8
 71
3
 72
8
 73
4
 74
0
 40
0
 40
0
 40
0
 40
0
 40
1
 40
1
 40
1
 40
1
 10
97.409237
 20
177.449800
 30
0.0
 10
97.096883
 20
177.449800
 30
0.0
 10
96.786825
 20
177.433723
 30
0.0
 10
96.479064
 20
177.401568
 30
0.0
  0
SPLINE
  5
22c
100
AcDbEntity
  8
Layer_1
 62
5
100
AcDbSpline
 70
8
 71
3
 72
8
 73
4
 74
0
 40
0
 40
0
 40
0
 40
0
 40
1
 40
1
 40
1
 40
1
 10
96.479064
 20
177.401568
 30
0.0
 10
96.166708
 20
177.369414
 30
0.0
 10
95.937034
 20
177.314293
 30
0.0
 10
95.790044
 20
177.236206
 30
0.0
  0
SPLINE
  5
22d
100
AcDbEntity
  8
Layer_1
 62
5
100
AcDbSpline
 70
8
 71
3
 72
8
 73
4
 74
0
 40
0
 40
0
 40
0
 40
0
 40
1
 40
1
 40
1
 40
1
 10
95.790044
 20
177.236206
 30
0.0
 10
95.620086
 20
177.144335
 30
0.0
 10
95.496062
 20
177.008828
 30
0.0
 10
95.417973
 20
176.829684
 30
0.0
  0
SPLINE
  5
22e
100
AcDbEntity
  8
Layer_1
 62
5
100
AcDbSpline
 70
8
 71
3
 72
8
 73
4
 74
0
 40
0
 40
0
 40
0
 40
0
 40
1
 40
1
 40
1
 40
1
 10
95.417973
 20
176.829684
 30
0.0
 10
95.339884
 20
176.655132
 30
0.0
 10
95.300840
 20
176.409381
 30
0.0
 10
95.300840
 20
176.092432
 30
0.0
  0
SPLINE
  5
22f
100
AcDbEntity
  8
Layer_1
 62
5
100
AcDbSpline
 70
8
 71
3
 72
8
 73
4
 74
0
 40
0
 40
0
 40
0
 40
0
 40
1
 40
1
 40
1
 40
1
 10
95.300840
 20
176.092432
 30
0.0
 10
95.300840
 20
175.867353
 30
0.0
 10
95.337588
 20
175.637680
 30
0.0
 10
95.411084
 20
175.403415
 30
0.0
  0
SPLINE
  5
230
100
AcDbEntity
  8
Layer_1
 62
5
100
AcDbSpline
 70
8
 71
3
 72
8
 73
4
 74
0
 40
0
 40
0
 40
0
 40
0
 40
1
 40
1
 40
1
 40
1
 10
95.411084
 20
175.403415
 30
0.0
 10
95.484578
 20
175.173741
 30
0.0
 10
95.601711
 20
174.923396
 30
0.0
 10
95.762482
 20
174.652382
 30
0.0
  0
LINE
  5
231
100
AcDbEntity
  8
Layer_1
 62
5
100
AcDbLine
 10
95.762482
 20
174.652382
 30
0.0
 11
101.247075
 21
174.652382
 31
0.0
  0
LINE
  5
232
100
AcDbEntity
  8
Layer_1
 62
5
100
AcDbLine
 10
101.247075
 20
174.652382
 30
0.0
 11
101.247075
 21
172.171914
 31
0.0
  0
LINE
  5
233
100
AcDbEntity
  8
Layer_1
 62
5
100
AcDbLine
 10
101.247075
 20
172.171914
 30
0.0
 11
93.509389
 21
172.171914
 31
0.0
  0
LINE
  5
234
100
AcDbEntity
  8
Layer_1
 62
5
100
AcDbLine
 10
93.509389
 20
172.171914
 30
0.0
 11
93.509389
 21
174.652382
 31
0.0
  0
LINE
  5
235
100
AcDbEntity
  8
Layer_1
 62
5
100
AcDbLine
 10
93.509389
 20
174.652382
 30
0.0
 11
94.363774
 21
174.652382
 31
0.0
  0
SPLINE
  5
236
100
AcDbEntity
  8
Layer_1
 62
5
100
AcDbSpline
 70
8
 71
3
 72
8
 73
4
 74
0
 40
0
 40
0
 40
0
 40
0
 40
1
 40
1
 40
1
 40
1
 10
94.363774
 20
174.652382
 30
0.0
 10
94.019264
 20
175.093354
 30
0.0
 10
93.755139
 20
175.515953
 30
0.0
 10
93.571401
 20
175.920178
 30
0.0
  0
SPLINE
  5
237
100
AcDbEntity
  8
Layer_1
 62
5
100
AcDbSpline
 70
8
 71
3
 72
8
 73
4
 74
0
 40
0
 40
0
 40
0
 40
0
 40
1
 40
1
 40
1
 40
1
 10
93.571401
 20
175.920178
 30
0.0
 10
93.387664
 20
176.328996
 30
0.0
 10
93.295795
 20
176.781452
 30
0.0
 10
93.295795
 20
177.277546
 30
0.0
  0
SPLINE
  5
238
100
AcDbEntity
  8
Layer_1
 62
5
100
AcDbSpline
 70
8
 71
3
 72
8
 73
4
 74
0
 40
0
 40
0
 40
0
 40
0
 40
1
 40
1
 40
1
 40
1
 10
93.295795
 20
177.277546
 30
0.0
 10
93.295795
 20
178.113556
 30
0.0
 10
93.539248
 20
178.765827
 30
0.0
 10
94.026155
 20
179.234359
 30
0.0
  0
SPLINE
  5
239
100
AcDbEntity
  8
Layer_1
 62
5
100
AcDbSpline
 70
8
 71
3
 72
8
 73
4
 74
0
 40
0
 40
0
 40
0
 40
0
 40
1
 40
1
 40
1
 40
1
 10
94.026155
 20
179.234359
 30
0.0
 10
94.513061
 20
179.707486
 30
0.0
 10
95.241125
 20
179.944049
 30
0.0
 10
96.210346
 20
179.944049
 30
0.0
  0
LINE
  5
23a
100
AcDbEntity
  8
Layer_1
 62
5
100
AcDbLine
 10
96.210346
 20
179.944049
 30
0.0
 11
101.247075
 21
179.944049
 31
0.0
  0
LINE
  5
23b
100
AcDbEntity
  8
Layer_1
 62
5
100
AcDbLine
 10
101.247075
 20
179.944049
 30
0.0
 11
101.247075
 21
179.944049
 31
0.0
  0
SPLINE
  5
23c
100
AcDbEntity
  8
Layer_1
 62
5
100
AcDbSpline
 70
8
 71
3
 72
8
 73
4
 74
0
 40
0
 40
0
 40
0
 40
0
 40
1
 40
1
 40
1
 40
1
 10
92.178203
 20
102.597297
 30
0.0
 10
93.416507
 20
101.358993
 30
0.0
 10
95.126929
 20
100.592805
 30
0.0
 10
97.016770
 20
100.592805
 30
0.0
  0
SPLINE
  5
23d
100
AcDbEntity
  8
Layer_1
 62
5
100
AcDbSpline
 70
8
 71
3
 72
8
 73
4
 74
0
 40
0
 40
0
 40
0
 40
0
 40
1
 40
1
 40
1
 40
1
 10
97.016770
 20
100.592805
 30
0.0
 10
100.796163
 20
100.592805
 30
0.0
 10
103.859827
 20
103.656734
 30
0.0
 10
103.859827
 20
107.435867
 30
0.0
  0
SPLINE
  5
23e
100
AcDbEntity
  8
Layer_1
 62
5
100
AcDbSpline
 70
8
 71
3
 72
8
 73
4
 74
0
 40
0
 40
0
 40
0
 40
0
 40
1
 40
1
 40
1
 40
1
 10
103.859827
 20
107.435867
 30
0.0
 10
103.859827
 20
111.214997
 30
0.0
 10
100.796163
 20
114.278929
 30
0.0
 10
97.016770
 20
114.278929
 30
0.0
  0
SPLINE
  5
23f
100
AcDbEntity
  8
Layer_1
 62
5
100
AcDbSpline
 70
8
 71
3
 72
8
 73
4
 74
0
 40
0
 40
0
 40
0
 40
0
 40
1
 40
1
 40
1
 40
1
 10
97.016770
 20
114.278929
 30
0.0
 10
95.127202
 20
114.278929
 30
0.0
 10
93.416507
 20
113.513014
 30
0.0
 10
92.178338
 20
112.274711
 30
0.0
  0
LINE
  5
240
100
AcDbEntity
  8
Layer_1
 62
5
100
AcDbLine
 10
87.339359
 20
107.435867
 30
0.0
 11
92.178203
 21
102.597297
 31
0.0
  0
LINE
  5
241
100
AcDbEntity
  8
Layer_1
 62
5
100
AcDbLine
 10
92.178203
 20
102.597297
 30
0.0
 11
87.339359
 21
107.435867
 31
0.0
  0
LINE
  5
242
100
AcDbEntity
  8
Layer_1
 62
5
100
AcDbLine
 10
87.339359
 20
107.435867
 30
0.0
 11
87.339359
 21
107.435867
 31
0.0
  0
LINE
  5
243
100
AcDbEntity
  8
Layer_1
 62
5
100
AcDbLine
 10
92.178338
 20
112.274711
 30
0.0
 11
87.339359
 21
107.435867
 31
0.0
  0
LINE
  5
244
100
AcDbEntity
  8
Layer_1
 62
5
100
AcDbLine
 10
87.339359
 20
107.435867
 30
0.0
 11
87.339359
 21
107.435867
 31
0.0
  0
LINE
  5
245
100
AcDbEntity
  8
Layer_1
 62
5
100
AcDbLine
 10
87.339359
 20
107.435867
 30
0.0
 11
92.178338
 21
112.274711
 31
0.0
  0
LINE
  5
246
100
AcDbEntity
  8
Layer_1
 62
5
100
AcDbLine
 10
92.178338
 20
112.274711
 30
0.0
 11
92.178338
 21
112.274711
 31
0.0
  0
LINE
  5
247
100
AcDbEntity
  8
Layer_1
 62
5
100
AcDbLine
 10
83.153589
 20
98.212867
 30
0.0
 11
83.153589
 21
181.712867
 31
0.0
  0
SPLINE
  5
248
100
AcDbEntity
  8
Layer_1
 62
5
100
AcDbSpline
 70
8
 71
3
 72
8
 73
4
 74
0
 40
0
 40
0
 40
0
 40
0
 40
1
 40
1
 40
1
 40
1
 10
83.153589
 20
181.712867
 30
0.0
 10
83.153589
 20
182.820866
 30
0.0
 10
84.045589
 20
183.712868
 30
0.0
 10
85.153587
 20
183.712868
 30
0.0
  0
LINE
  5
249
100
AcDbEntity
  8
Layer_1
 62
5
100
AcDbLine
 10
85.153587
 20
183.712868
 30
0.0
 11
106.153591
 21
183.712868
 31
0.0
  0
SPLINE
  5
24a
100
AcDbEntity
  8
Layer_1
 62
5
100
AcDbSpline
 70
8
 71
3
 72
8
 73
4
 74
0
 40
0
 40
0
 40
0
 40
0
 40
1
 40
1
 40
1
 40
1
 10
106.153591
 20
183.712868
 30
0.0
 10
107.261589
 20
183.712868
 30
0.0
 10
108.153589
 20
182.820866
 30
0.0
 10
108.153589
 20
181.712867
 30
0.0
  0
LINE
  5
24b
100
AcDbEntity
  8
Layer_1
 62
5
100
AcDbLine
 10
108.153589
 20
181.712867
 30
0.0
 11
108.153589
 21
98.212867
 31
0.0
  0
SPLINE
  5
24c
100
AcDbEntity
  8
Layer_1
 62
5
100
AcDbSpline
 70
8
 71
3
 72
8
 73
4
 74
0
 40
0
 40
0
 40
0
 40
0
 40
1
 40
1
 40
1
 40
1
 10
108.153589
 20
98.212867
 30
0.0
 10
108.153589
 20
97.104868
 30
0.0
 10
107.261589
 20
96.212868
 30
0.0
 10
106.153591
 20
96.212868
 30
0.0
  0
LINE
  5
24d
100
AcDbEntity
  8
Layer_1
 62
5
100
AcDbLine
 10
106.153591
 20
96.212868
 30
0.0
 11
85.153587
 21
96.212868
 31
0.0
  0
SPLINE
  5
24e
100
AcDbEntity
  8
Layer_1
 62
5
100
AcDbSpline
 70
8
 71
3
 72
8
 73
4
 74
0
 40
0
 40
0
 40
0
 40
0
 40
1
 40
1
 40
1
 40
1
 10
85.153587
 20
96.212868
 30
0.0
 10
84.045589
 20
96.212868
 30
0.0
 10
83.153589
 20
97.104868
 30
0.0
 10
83.153589
 20
98.212867
 30
0.0
  0
LINE
  5
24f
100
AcDbEntity
  8
Layer_1
 62
5
100
AcDbLine
 10
83.153589
 20
98.212867
 30
0.0
 11
83.153589
 21
98.212867
 31
0.0
  0
SPLINE
  5
250
100
AcDbEntity
  8
Layer_1
 62
5
100
AcDbSpline
 70
8
 71
3
 72
8
 73
4
 74
0
 40
0
 40
0
 40
0
 40
0
 40
1
 40
1
 40
1
 40
1
 10
326.694506
 20
38.681758
 30
0.0
 10
327.766714
 20
38.681755
 30
0.0
 10
328.635909
 20
37.812560
 30
0.0
 10
328.635913
 20
36.740352
 30
0.0
  0
SPLINE
  5
251
100
AcDbEntity
  8
Layer_1
 62
5
100
AcDbSpline
 70
8
 71
3
 72
8
 73
4
 74
0
 40
0
 40
0
 40
0
 40
0
 40
1
 40
1
 40
1
 40
1
 10
328.635913
 20
36.740352
 30
0.0
 10
328.635919
 20
36.225454
 30
0.0
 10
328.431381
 20
35.731644
 30
0.0
 10
328.067296
 20
35.367553
 30
0.0
  0
SPLINE
  5
252
100
AcDbEntity
  8
Layer_1
 62
5
100
AcDbSpline
 70
8
 71
3
 72
8
 73
4
 74
0
 40
0
 40
0
 40
0
 40
0
 40
1
 40
1
 40
1
 40
1
 10
328.067296
 20
35.367553
 30
0.0
 10
327.703211
 20
35.003463
 30
0.0
 10
327.209404
 20
34.798918
 30
0.0
 10
326.694506
 20
34.798917
 30
0.0
  0
SPLINE
  5
253
100
AcDbEntity
  8
Layer_1
 62
5
100
AcDbSpline
 70
8
 71
3
 72
8
 73
4
 74
0
 40
0
 40
0
 40
0
 40
0
 40
1
 40
1
 40
1
 40
1
 10
326.694506
 20
34.798917
 30
0.0
 10
326.179604
 20
34.798911
 30
0.0
 10
325.685789
 20
35.003453
 30
0.0
 10
325.321698
 20
35.367543
 30
0.0
  0
SPLINE
  5
254
100
AcDbEntity
  8
Layer_1
 62
5
100
AcDbSpline
 70
8
 71
3
 72
8
 73
4
 74
0
 40
0
 40
0
 40
0
 40
0
 40
1
 40
1
 40
1
 40
1
 10
325.321698
 20
35.367543
 30
0.0
 10
324.957608
 20
35.731634
 30
0.0
 10
324.753066
 20
36.225449
 30
0.0
 10
324.753072
 20
36.740352
 30
0.0
  0
SPLINE
  5
255
100
AcDbEntity
  8
Layer_1
 62
5
100
AcDbSpline
 70
8
 71
3
 72
8
 73
4
 74
0
 40
0
 40
0
 40
0
 40
0
 40
1
 40
1
 40
1
 40
1
 10
324.753072
 20
36.740352
 30
0.0
 10
324.753073
 20
37.255249
 30
0.0
 10
324.957618
 20
37.749057
 30
0.0
 10
325.321708
 20
38.113142
 30
0.0
  0
SPLINE
  5
256
100
AcDbEntity
  8
Layer_1
 62
5
100
AcDbSpline
 70
8
 71
3
 72
8
 73
4
 74
0
 40
0
 40
0
 40
0
 40
0
 40
1
 40
1
 40
1
 40
1
 10
325.321708
 20
38.113142
 30
0.0
 10
325.685799
 20
38.477227
 30
0.0
 10
326.179609
 20
38.681764
 30
0.0
 10
326.694506
 20
38.681758
 30
0.0
  0
LINE
  5
257
100
AcDbEntity
  8
Layer_1
 62
5
100
AcDbLine
 10
326.694506
 20
38.681758
 30
0.0
 11
326.694506
 21
38.681758
 31
0.0
  0
SPLINE
  5
258
100
AcDbEntity
  8
Layer_1
 62
5
100
AcDbSpline
 70
8
 71
3
 72
8
 73
4
 74
0
 40
0
 40
0
 40
0
 40
0
 40
1
 40
1
 40
1
 40
1
 10
326.694506
 20
246.681794
 30
0.0
 10
327.209404
 20
246.681792
 30
0.0
 10
327.703211
 20
246.477247
 30
0.0
 10
328.067296
 20
246.113157
 30
0.0
  0
SPLINE
  5
259
100
AcDbEntity
  8
Layer_1
 62
5
100
AcDbSpline
 70
8
 71
3
 72
8
 73
4
 74
0
 40
0
 40
0
 40
0
 40
0
 40
1
 40
1
 40
1
 40
1
 10
328.067296
 20
246.113157
 30
0.0
 10
328.431381
 20
245.749067
 30
0.0
 10
328.635919
 20
245.255257
 30
0.0
 10
328.635913
 20
244.740359
 30
0.0
  0
SPLINE
  5
25a
100
AcDbEntity
  8
Layer_1
 62
5
100
AcDbSpline
 70
8
 71
3
 72
8
 73
4
 74
0
 40
0
 40
0
 40
0
 40
0
 40
1
 40
1
 40
1
 40
1
 10
328.635913
 20
244.740359
 30
0.0
 10
328.635909
 20
243.668151
 30
0.0
 10
327.766714
 20
242.798956
 30
0.0
 10
326.694506
 20
242.798952
 30
0.0
  0
SPLINE
  5
25b
100
AcDbEntity
  8
Layer_1
 62
5
100
AcDbSpline
 70
8
 71
3
 72
8
 73
4
 74
0
 40
0
 40
0
 40
0
 40
0
 40
1
 40
1
 40
1
 40
1
 10
326.694506
 20
242.798952
 30
0.0
 10
326.179609
 20
242.798947
 30
0.0
 10
325.685799
 20
243.003484
 30
0.0
 10
325.321708
 20
243.367569
 30
0.0
  0
SPLINE
  5
25c
100
AcDbEntity
  8
Layer_1
 62
5
100
AcDbSpline
 70
8
 71
3
 72
8
 73
4
 74
0
 40
0
 40
0
 40
0
 40
0
 40
1
 40
1
 40
1
 40
1
 10
325.321708
 20
243.367569
 30
0.0
 10
324.957618
 20
243.731654
 30
0.0
 10
324.753073
 20
244.225462
 30
0.0
 10
324.753072
 20
244.740359
 30
0.0
  0
SPLINE
  5
25d
100
AcDbEntity
  8
Layer_1
 62
5
100
AcDbSpline
 70
8
 71
3
 72
8
 73
4
 74
0
 40
0
 40
0
 40
0
 40
0
 40
1
 40
1
 40
1
 40
1
 10
324.753072
 20
244.740359
 30
0.0
 10
324.753066
 20
245.255261
 30
0.0
 10
324.957608
 20
245.749076
 30
0.0
 10
325.321698
 20
246.113167
 30
0.0
  0
SPLINE
  5
25e
100
AcDbEntity
  8
Layer_1
 62
5
100
AcDbSpline
 70
8
 71
3
 72
8
 73
4
 74
0
 40
0
 40
0
 40
0
 40
0
 40
1
 40
1
 40
1
 40
1
 10
325.321698
 20
246.113167
 30
0.0
 10
325.685789
 20
246.477258
 30
0.0
 10
326.179604
 20
246.681800
 30
0.0
 10
326.694506
 20
246.681794
 30
0.0
  0
LINE
  5
25f
100
AcDbEntity
  8
Layer_1
 62
5
100
AcDbLine
 10
326.694506
 20
246.681794
 30
0.0
 11
326.694506
 21
246.681794
 31
0.0
  0
SPLINE
  5
260
100
AcDbEntity
  8
Layer_1
 62
5
100
AcDbSpline
 70
8
 71
3
 72
8
 73
4
 74
0
 40
0
 40
0
 40
0
 40
0
 40
1
 40
1
 40
1
 40
1
 10
12.694485
 20
38.681758
 30
0.0
 10
13.209383
 20
38.681764
 30
0.0
 10
13.703193
 20
38.477227
 30
0.0
 10
14.067283
 20
38.113142
 30
0.0
  0
SPLINE
  5
261
100
AcDbEntity
  8
Layer_1
 62
5
100
AcDbSpline
 70
8
 71
3
 72
8
 73
4
 74
0
 40
0
 40
0
 40
0
 40
0
 40
1
 40
1
 40
1
 40
1
 10
14.067283
 20
38.113142
 30
0.0
 10
14.431374
 20
37.749057
 30
0.0
 10
14.635918
 20
37.255249
 30
0.0
 10
14.635920
 20
36.740352
 30
0.0
  0
SPLINE
  5
262
100
AcDbEntity
  8
Layer_1
 62
5
100
AcDbSpline
 70
8
 71
3
 72
8
 73
4
 74
0
 40
0
 40
0
 40
0
 40
0
 40
1
 40
1
 40
1
 40
1
 10
14.635920
 20
36.740352
 30
0.0
 10
14.635926
 20
36.225449
 30
0.0
 10
14.431384
 20
35.731634
 30
0.0
 10
14.067293
 20
35.367543
 30
0.0
  0
SPLINE
  5
263
100
AcDbEntity
  8
Layer_1
 62
5
100
AcDbSpline
 70
8
 71
3
 72
8
 73
4
 74
0
 40
0
 40
0
 40
0
 40
0
 40
1
 40
1
 40
1
 40
1
 10
14.067293
 20
35.367543
 30
0.0
 10
13.703202
 20
35.003453
 30
0.0
 10
13.209388
 20
34.798911
 30
0.0
 10
12.694485
 20
34.798917
 30
0.0
  0
SPLINE
  5
264
100
AcDbEntity
  8
Layer_1
 62
5
100
AcDbSpline
 70
8
 71
3
 72
8
 73
4
 74
0
 40
0
 40
0
 40
0
 40
0
 40
1
 40
1
 40
1
 40
1
 10
12.694485
 20
34.798917
 30
0.0
 10
12.179588
 20
34.798918
 30
0.0
 10
11.685780
 20
35.003463
 30
0.0
 10
11.321696
 20
35.367553
 30
0.0
  0
SPLINE
  5
265
100
AcDbEntity
  8
Layer_1
 62
5
100
AcDbSpline
 70
8
 71
3
 72
8
 73
4
 74
0
 40
0
 40
0
 40
0
 40
0
 40
1
 40
1
 40
1
 40
1
 10
11.321696
 20
35.367553
 30
0.0
 10
10.957611
 20
35.731644
 30
0.0
 10
10.753073
 20
36.225454
 30
0.0
 10
10.753079
 20
36.740352
 30
0.0
  0
SPLINE
  5
266
100
AcDbEntity
  8
Layer_1
 62
5
100
AcDbSpline
 70
8
 71
3
 72
8
 73
4
 74
0
 40
0
 40
0
 40
0
 40
0
 40
1
 40
1
 40
1
 40
1
 10
10.753079
 20
36.740352
 30
0.0
 10
10.753082
 20
37.812560
 30
0.0
 10
11.622278
 20
38.681755
 30
0.0
 10
12.694485
 20
38.681758
 30
0.0
  0
LINE
  5
267
100
AcDbEntity
  8
Layer_1
 62
5
100
AcDbLine
 10
12.694485
 20
38.681758
 30
0.0
 11
12.694485
 21
38.681758
 31
0.0
  0
SPLINE
  5
268
100
AcDbEntity
  8
Layer_1
 62
5
100
AcDbSpline
 70
8
 71
3
 72
8
 73
4
 74
0
 40
0
 40
0
 40
0
 40
0
 40
1
 40
1
 40
1
 40
1
 10
12.694485
 20
246.681794
 30
0.0
 10
13.209388
 20
246.681800
 30
0.0
 10
13.703202
 20
246.477258
 30
0.0
 10
14.067293
 20
246.113167
 30
0.0
  0
SPLINE
  5
269
100
AcDbEntity
  8
Layer_1
 62
5
100
AcDbSpline
 70
8
 71
3
 72
8
 73
4
 74
0
 40
0
 40
0
 40
0
 40
0
 40
1
 40
1
 40
1
 40
1
 10
14.067293
 20
246.113167
 30
0.0
 10
14.431384
 20
245.749076
 30
0.0
 10
14.635926
 20
245.255261
 30
0.0
 10
14.635920
 20
244.740359
 30
0.0
  0
SPLINE
  5
26a
100
AcDbEntity
  8
Layer_1
 62
5
100
AcDbSpline
 70
8
 71
3
 72
8
 73
4
 74
0
 40
0
 40
0
 40
0
 40
0
 40
1
 40
1
 40
1
 40
1
 10
14.635920
 20
244.740359
 30
0.0
 10
14.635918
 20
244.225462
 30
0.0
 10
14.431374
 20
243.731654
 30
0.0
 10
14.067283
 20
243.367569
 30
0.0
  0
SPLINE
  5
26b
100
AcDbEntity
  8
Layer_1
 62
5
100
AcDbSpline
 70
8
 71
3
 72
8
 73
4
 74
0
 40
0
 40
0
 40
0
 40
0
 40
1
 40
1
 40
1
 40
1
 10
14.067283
 20
243.367569
 30
0.0
 10
13.703193
 20
243.003484
 30
0.0
 10
13.209383
 20
242.798947
 30
0.0
 10
12.694485
 20
242.798952
 30
0.0
  0
SPLINE
  5
26c
100
AcDbEntity
  8
Layer_1
 62
5
100
AcDbSpline
 70
8
 71
3
 72
8
 73
4
 74
0
 40
0
 40
0
 40
0
 40
0
 40
1
 40
1
 40
1
 40
1
 10
12.694485
 20
242.798952
 30
0.0
 10
11.622278
 20
242.798956
 30
0.0
 10
10.753082
 20
243.668151
 30
0.0
 10
10.753079
 20
244.740359
 30
0.0
  0
SPLINE
  5
26d
100
AcDbEntity
  8
Layer_1
 62
5
100
AcDbSpline
 70
8
 71
3
 72
8
 73
4
 74
0
 40
0
 40
0
 40
0
 40
0
 40
1
 40
1
 40
1
 40
1
 10
10.753079
 20
244.740359
 30
0.0
 10
10.753073
 20
245.255257
 30
0.0
 10
10.957611
 20
245.749067
 30
0.0
 10
11.321696
 20
246.113157
 30
0.0
  0
SPLINE
  5
26e
100
AcDbEntity
  8
Layer_1
 62
5
100
AcDbSpline
 70
8
 71
3
 72
8
 73
4
 74
0
 40
0
 40
0
 40
0
 40
0
 40
1
 40
1
 40
1
 40
1
 10
11.321696
 20
246.113157
 30
0.0
 10
11.685780
 20
246.477247
 30
0.0
 10
12.179588
 20
246.681792
 30
0.0
 10
12.694485
 20
246.681794
 30
0.0
  0
LINE
  5
26f
100
AcDbEntity
  8
Layer_1
 62
5
100
AcDbLine
 10
12.694485
 20
246.681794
 30
0.0
 11
12.694485
 21
246.681794
 31
0.0
  0
SPLINE
  5
270
100
AcDbEntity
  8
Layer_1
 62
5
100
AcDbSpline
 70
8
 71
3
 72
8
 73
4
 74
0
 40
0
 40
0
 40
0
 40
0
 40
1
 40
1
 40
1
 40
1
 10
230.081176
 20
74.431779
 30
0.0
 10
230.596073
 20
74.431777
 30
0.0
 10
231.089881
 20
74.227232
 30
0.0
 10
231.453965
 20
73.863142
 30
0.0
  0
SPLINE
  5
271
100
AcDbEntity
  8
Layer_1
 62
5
100
AcDbSpline
 70
8
 71
3
 72
8
 73
4
 74
0
 40
0
 40
0
 40
0
 40
0
 40
1
 40
1
 40
1
 40
1
 10
231.453965
 20
73.863142
 30
0.0
 10
231.818050
 20
73.499052
 30
0.0
 10
232.022588
 20
73.005241
 30
0.0
 10
232.022582
 20
72.490344
 30
0.0
  0
SPLINE
  5
272
100
AcDbEntity
  8
Layer_1
 62
5
100
AcDbSpline
 70
8
 71
3
 72
8
 73
4
 74
0
 40
0
 40
0
 40
0
 40
0
 40
1
 40
1
 40
1
 40
1
 10
232.022582
 20
72.490344
 30
0.0
 10
232.022578
 20
71.418136
 30
0.0
 10
231.153383
 20
70.548940
 30
0.0
 10
230.081176
 20
70.548937
 30
0.0
  0
SPLINE
  5
273
100
AcDbEntity
  8
Layer_1
 62
5
100
AcDbSpline
 70
8
 71
3
 72
8
 73
4
 74
0
 40
0
 40
0
 40
0
 40
0
 40
1
 40
1
 40
1
 40
1
 10
230.081176
 20
70.548937
 30
0.0
 10
229.566278
 20
70.548931
 30
0.0
 10
229.072468
 20
70.753469
 30
0.0
 10
228.708378
 20
71.117554
 30
0.0
  0
SPLINE
  5
274
100
AcDbEntity
  8
Layer_1
 62
5
100
AcDbSpline
 70
8
 71
3
 72
8
 73
4
 74
0
 40
0
 40
0
 40
0
 40
0
 40
1
 40
1
 40
1
 40
1
 10
228.708378
 20
71.117554
 30
0.0
 10
228.344287
 20
71.481638
 30
0.0
 10
228.139743
 20
71.975446
 30
0.0
 10
228.139741
 20
72.490344
 30
0.0
  0
SPLINE
  5
275
100
AcDbEntity
  8
Layer_1
 62
5
100
AcDbSpline
 70
8
 71
3
 72
8
 73
4
 74
0
 40
0
 40
0
 40
0
 40
0
 40
1
 40
1
 40
1
 40
1
 10
228.139741
 20
72.490344
 30
0.0
 10
228.139735
 20
73.005246
 30
0.0
 10
228.344277
 20
73.499061
 30
0.0
 10
228.708368
 20
73.863152
 30
0.0
  0
SPLINE
  5
276
100
AcDbEntity
  8
Layer_1
 62
5
100
AcDbSpline
 70
8
 71
3
 72
8
 73
4
 74
0
 40
0
 40
0
 40
0
 40
0
 40
1
 40
1
 40
1
 40
1
 10
228.708368
 20
73.863152
 30
0.0
 10
229.072459
 20
74.227243
 30
0.0
 10
229.566273
 20
74.431784
 30
0.0
 10
230.081176
 20
74.431779
 30
0.0
  0
LINE
  5
277
100
AcDbEntity
  8
Layer_1
 62
5
100
AcDbLine
 10
230.081176
 20
74.431779
 30
0.0
 11
230.081176
 21
74.431779
 31
0.0
  0
SPLINE
  5
278
100
AcDbEntity
  8
Layer_1
 62
5
100
AcDbSpline
 70
8
 71
3
 72
8
 73
4
 74
0
 40
0
 40
0
 40
0
 40
0
 40
1
 40
1
 40
1
 40
1
 10
230.081176
 20
214.431781
 30
0.0
 10
231.153384
 20
214.431777
 30
0.0
 10
232.022579
 20
213.562582
 30
0.0
 10
232.022582
 20
212.490374
 30
0.0
  0
SPLINE
  5
279
100
AcDbEntity
  8
Layer_1
 62
5
100
AcDbSpline
 70
8
 71
3
 72
8
 73
4
 74
0
 40
0
 40
0
 40
0
 40
0
 40
1
 40
1
 40
1
 40
1
 10
232.022582
 20
212.490374
 30
0.0
 10
232.022588
 20
211.975477
 30
0.0
 10
231.818050
 20
211.481666
 30
0.0
 10
231.453966
 20
211.117576
 30
0.0
  0
SPLINE
  5
27a
100
AcDbEntity
  8
Layer_1
 62
5
100
AcDbSpline
 70
8
 71
3
 72
8
 73
4
 74
0
 40
0
 40
0
 40
0
 40
0
 40
1
 40
1
 40
1
 40
1
 10
231.453966
 20
211.117576
 30
0.0
 10
231.089881
 20
210.753486
 30
0.0
 10
230.596073
 20
210.548941
 30
0.0
 10
230.081176
 20
210.548939
 30
0.0
  0
SPLINE
  5
27b
100
AcDbEntity
  8
Layer_1
 62
5
100
AcDbSpline
 70
8
 71
3
 72
8
 73
4
 74
0
 40
0
 40
0
 40
0
 40
0
 40
1
 40
1
 40
1
 40
1
 10
230.081176
 20
210.548939
 30
0.0
 10
229.566273
 20
210.548934
 30
0.0
 10
229.072458
 20
210.753475
 30
0.0
 10
228.708367
 20
211.117566
 30
0.0
  0
SPLINE
  5
27c
100
AcDbEntity
  8
Layer_1
 62
5
100
AcDbSpline
 70
8
 71
3
 72
8
 73
4
 74
0
 40
0
 40
0
 40
0
 40
0
 40
1
 40
1
 40
1
 40
1
 10
228.708367
 20
211.117566
 30
0.0
 10
228.344276
 20
211.481657
 30
0.0
 10
228.139735
 20
211.975472
 30
0.0
 10
228.139741
 20
212.490374
 30
0.0
  0
SPLINE
  5
27d
100
AcDbEntity
  8
Layer_1
 62
5
100
AcDbSpline
 70
8
 71
3
 72
8
 73
4
 74
0
 40
0
 40
0
 40
0
 40
0
 40
1
 40
1
 40
1
 40
1
 10
228.139741
 20
212.490374
 30
0.0
 10
228.139742
 20
213.005271
 30
0.0
 10
228.344287
 20
213.499079
 30
0.0
 10
228.708377
 20
213.863164
 30
0.0
  0
SPLINE
  5
27e
100
AcDbEntity
  8
Layer_1
 62
5
100
AcDbSpline
 70
8
 71
3
 72
8
 73
4
 74
0
 40
0
 40
0
 40
0
 40
0
 40
1
 40
1
 40
1
 40
1
 10
228.708377
 20
213.863164
 30
0.0
 10
229.072467
 20
214.227249
 30
0.0
 10
229.566278
 20
214.431786
 30
0.0
 10
230.081176
 20
214.431781
 30
0.0
  0
LINE
  5
27f
100
AcDbEntity
  8
Layer_1
 62
5
100
AcDbLine
 10
230.081176
 20
214.431781
 30
0.0
 11
230.081176
 21
214.431781
 31
0.0
  0
SPLINE
  5
280
100
AcDbEntity
  8
Layer_1
 62
5
100
AcDbSpline
 70
8
 71
3
 72
8
 73
4
 74
0
 40
0
 40
0
 40
0
 40
0
 40
1
 40
1
 40
1
 40
1
 10
127.081156
 20
214.431781
 30
0.0
 10
127.596053
 20
214.431787
 30
0.0
 10
128.089864
 20
214.227249
 30
0.0
 10
128.453954
 20
213.863164
 30
0.0
  0
SPLINE
  5
281
100
AcDbEntity
  8
Layer_1
 62
5
100
AcDbSpline
 70
8
 71
3
 72
8
 73
4
 74
0
 40
0
 40
0
 40
0
 40
0
 40
1
 40
1
 40
1
 40
1
 10
128.453954
 20
213.863164
 30
0.0
 10
128.818044
 20
213.499079
 30
0.0
 10
129.022589
 20
213.005272
 30
0.0
 10
129.022591
 20
212.490374
 30
0.0
  0
SPLINE
  5
282
100
AcDbEntity
  8
Layer_1
 62
5
100
AcDbSpline
 70
8
 71
3
 72
8
 73
4
 74
0
 40
0
 40
0
 40
0
 40
0
 40
1
 40
1
 40
1
 40
1
 10
129.022591
 20
212.490374
 30
0.0
 10
129.022596
 20
211.975472
 30
0.0
 10
128.818055
 20
211.481657
 30
0.0
 10
128.453964
 20
211.117566
 30
0.0
  0
SPLINE
  5
283
100
AcDbEntity
  8
Layer_1
 62
5
100
AcDbSpline
 70
8
 71
3
 72
8
 73
4
 74
0
 40
0
 40
0
 40
0
 40
0
 40
1
 40
1
 40
1
 40
1
 10
128.453964
 20
211.117566
 30
0.0
 10
128.089873
 20
210.753475
 30
0.0
 10
127.596058
 20
210.548933
 30
0.0
 10
127.081156
 20
210.548939
 30
0.0
  0
SPLINE
  5
284
100
AcDbEntity
  8
Layer_1
 62
5
100
AcDbSpline
 70
8
 71
3
 72
8
 73
4
 74
0
 40
0
 40
0
 40
0
 40
0
 40
1
 40
1
 40
1
 40
1
 10
127.081156
 20
210.548939
 30
0.0
 10
126.566258
 20
210.548941
 30
0.0
 10
126.072451
 20
210.753486
 30
0.0
 10
125.708366
 20
211.117576
 30
0.0
  0
SPLINE
  5
285
100
AcDbEntity
  8
Layer_1
 62
5
100
AcDbSpline
 70
8
 71
3
 72
8
 73
4
 74
0
 40
0
 40
0
 40
0
 40
0
 40
1
 40
1
 40
1
 40
1
 10
125.708366
 20
211.117576
 30
0.0
 10
125.344281
 20
211.481666
 30
0.0
 10
125.139743
 20
211.975477
 30
0.0
 10
125.139749
 20
212.490374
 30
0.0
  0
SPLINE
  5
286
100
AcDbEntity
  8
Layer_1
 62
5
100
AcDbSpline
 70
8
 71
3
 72
8
 73
4
 74
0
 40
0
 40
0
 40
0
 40
0
 40
1
 40
1
 40
1
 40
1
 10
125.139749
 20
212.490374
 30
0.0
 10
125.139753
 20
213.562582
 30
0.0
 10
126.008948
 20
214.431777
 30
0.0
 10
127.081156
 20
214.431781
 30
0.0
  0
LINE
  5
287
100
AcDbEntity
  8
Layer_1
 62
5
100
AcDbLine
 10
127.081156
 20
214.431781
 30
0.0
 11
127.081156
 21
214.431781
 31
0.0
  0
SPLINE
  5
288
100
AcDbEntity
  8
Layer_1
 62
5
100
AcDbSpline
 70
8
 71
3
 72
8
 73
4
 74
0
 40
0
 40
0
 40
0
 40
0
 40
1
 40
1
 40
1
 40
1
 10
127.081156
 20
74.431779
 30
0.0
 10
127.596058
 20
74.431784
 30
0.0
 10
128.089873
 20
74.227243
 30
0.0
 10
128.453964
 20
73.863152
 30
0.0
  0
SPLINE
  5
289
100
AcDbEntity
  8
Layer_1
 62
5
100
AcDbSpline
 70
8
 71
3
 72
8
 73
4
 74
0
 40
0
 40
0
 40
0
 40
0
 40
1
 40
1
 40
1
 40
1
 10
128.453964
 20
73.863152
 30
0.0
 10
128.818055
 20
73.499061
 30
0.0
 10
129.022596
 20
73.005246
 30
0.0
 10
129.022591
 20
72.490344
 30
0.0
  0
SPLINE
  5
28a
100
AcDbEntity
  8
Layer_1
 62
5
100
AcDbSpline
 70
8
 71
3
 72
8
 73
4
 74
0
 40
0
 40
0
 40
0
 40
0
 40
1
 40
1
 40
1
 40
1
 10
129.022591
 20
72.490344
 30
0.0
 10
129.022589
 20
71.975446
 30
0.0
 10
128.818044
 20
71.481638
 30
0.0
 10
128.453954
 20
71.117554
 30
0.0
  0
SPLINE
  5
28b
100
AcDbEntity
  8
Layer_1
 62
5
100
AcDbSpline
 70
8
 71
3
 72
8
 73
4
 74
0
 40
0
 40
0
 40
0
 40
0
 40
1
 40
1
 40
1
 40
1
 10
128.453954
 20
71.117554
 30
0.0
 10
128.089864
 20
70.753469
 30
0.0
 10
127.596053
 20
70.548931
 30
0.0
 10
127.081156
 20
70.548937
 30
0.0
  0
SPLINE
  5
28c
100
AcDbEntity
  8
Layer_1
 62
5
100
AcDbSpline
 70
8
 71
3
 72
8
 73
4
 74
0
 40
0
 40
0
 40
0
 40
0
 40
1
 40
1
 40
1
 40
1
 10
127.081156
 20
70.548937
 30
0.0
 10
126.008948
 20
70.548940
 30
0.0
 10
125.139753
 20
71.418136
 30
0.0
 10
125.139749
 20
72.490344
 30
0.0
  0
SPLINE
  5
28d
100
AcDbEntity
  8
Layer_1
 62
5
100
AcDbSpline
 70
8
 71
3
 72
8
 73
4
 74
0
 40
0
 40
0
 40
0
 40
0
 40
1
 40
1
 40
1
 40
1
 10
125.139749
 20
72.490344
 30
0.0
 10
125.139743
 20
73.005241
 30
0.0
 10
125.344281
 20
73.499052
 30
0.0
 10
125.708366
 20
73.863142
 30
0.0
  0
SPLINE
  5
28e
100
AcDbEntity
  8
Layer_1
 62
5
100
AcDbSpline
 70
8
 71
3
 72
8
 73
4
 74
0
 40
0
 40
0
 40
0
 40
0
 40
1
 40
1
 40
1
 40
1
 10
125.708366
 20
73.863142
 30
0.0
 10
126.072451
 20
74.227232
 30
0.0
 10
126.566258
 20
74.431777
 30
0.0
 10
127.081156
 20
74.431779
 30
0.0
  0
LINE
  5
28f
100
AcDbEntity
  8
Layer_1
 62
5
100
AcDbLine
 10
127.081156
 20
74.431779
 30
0.0
 11
127.081156
 21
74.431779
 31
0.0
  0
SPLINE
  5
290
100
AcDbEntity
  8
Layer_1
 62
5
100
AcDbSpline
 70
8
 71
3
 72
8
 73
4
 74
0
 40
0
 40
0
 40
0
 40
0
 40
1
 40
1
 40
1
 40
1
 10
92.178217
 20
102.597274
 30
0.0
 10
93.416521
 20
101.358968
 30
0.0
 10
95.126943
 20
100.592763
 30
0.0
 10
97.016784
 20
100.592763
 30
0.0
  0
SPLINE
  5
291
100
AcDbEntity
  8
Layer_1
 62
5
100
AcDbSpline
 70
8
 71
3
 72
8
 73
4
 74
0
 40
0
 40
0
 40
0
 40
0
 40
1
 40
1
 40
1
 40
1
 10
97.016784
 20
100.592763
 30
0.0
 10
100.796177
 20
100.592763
 30
0.0
 10
103.859841
 20
103.656708
 30
0.0
 10
103.859841
 20
107.435833
 30
0.0
  0
SPLINE
  5
292
100
AcDbEntity
  8
Layer_1
 62
5
100
AcDbSpline
 70
8
 71
3
 72
8
 73
4
 74
0
 40
0
 40
0
 40
0
 40
0
 40
1
 40
1
 40
1
 40
1
 10
103.859841
 20
107.435833
 30
0.0
 10
103.859841
 20
111.214958
 30
0.0
 10
100.796177
 20
114.278903
 30
0.0
 10
97.016784
 20
114.278903
 30
0.0
  0
SPLINE
  5
293
100
AcDbEntity
  8
Layer_1
 62
5
100
AcDbSpline
 70
8
 71
3
 72
8
 73
4
 74
0
 40
0
 40
0
 40
0
 40
0
 40
1
 40
1
 40
1
 40
1
 10
97.016784
 20
114.278903
 30
0.0
 10
95.127216
 20
114.278903
 30
0.0
 10
93.416521
 20
113.512981
 30
0.0
 10
92.178353
 20
112.274674
 30
0.0
  0
LINE
  5
294
100
AcDbEntity
  8
Layer_1
 62
5
100
AcDbLine
 10
87.339373
 20
107.435833
 30
0.0
 11
92.178217
 21
102.597274
 31
0.0
  0
LINE
  5
295
100
AcDbEntity
  8
Layer_1
 62
5
100
AcDbLine
 10
92.178217
 20
102.597274
 30
0.0
 11
87.339373
 21
107.435833
 31
0.0
  0
LINE
  5
296
100
AcDbEntity
  8
Layer_1
 62
5
100
AcDbLine
 10
87.339373
 20
107.435833
 30
0.0
 11
87.339373
 21
107.435833
 31
0.0
  0
LINE
  5
297
100
AcDbEntity
  8
Layer_1
 62
5
100
AcDbLine
 10
92.178353
 20
112.274674
 30
0.0
 11
87.339373
 21
107.435833
 31
0.0
  0
LINE
  5
298
100
AcDbEntity
  8
Layer_1
 62
5
100
AcDbLine
 10
87.339373
 20
107.435833
 30
0.0
 11
87.339373
 21
107.435833
 31
0.0
  0
LINE
  5
299
100
AcDbEntity
  8
Layer_1
 62
5
100
AcDbLine
 10
87.339373
 20
107.435833
 30
0.0
 11
92.178353
 21
112.274674
 31
0.0
  0
LINE
  5
29a
100
AcDbEntity
  8
Layer_1
 62
5
100
AcDbLine
 10
92.178353
 20
112.274674
 30
0.0
 11
92.178353
 21
112.274674
 31
0.0
  0
LINE
  5
29b
100
AcDbEntity
  8
Layer_1
 62
7
100
AcDbLine
 10
12.494590
 20
244.973421
 30
0.0
 11
12.994590
 21
244.973421
 31
0.0
  0
LINE
  5
29c
100
AcDbEntity
  8
Layer_1
 62
7
100
AcDbLine
 10
12.994590
 20
244.973421
 30
0.0
 11
12.994590
 21
244.473421
 31
0.0
  0
LINE
  5
29d
100
AcDbEntity
  8
Layer_1
 62
7
100
AcDbLine
 10
12.994590
 20
244.473421
 30
0.0
 11
12.494590
 21
244.473421
 31
0.0
  0
LINE
  5
29e
100
AcDbEntity
  8
Layer_1
 62
7
100
AcDbLine
 10
12.494590
 20
244.473421
 30
0.0
 11
12.494590
 21
244.973421
 31
0.0
  0
LINE
  5
29f
100
AcDbEntity
  8
Layer_1
 62
7
100
AcDbLine
 10
12.491556
 20
37.002626
 30
0.0
 11
12.991556
 21
37.002626
 31
0.0
  0
LINE
  5
2a0
100
AcDbEntity
  8
Layer_1
 62
7
100
AcDbLine
 10
12.991556
 20
37.002626
 30
0.0
 11
12.991556
 21
36.502626
 31
0.0
  0
LINE
  5
2a1
100
AcDbEntity
  8
Layer_1
 62
7
100
AcDbLine
 10
12.991556
 20
36.502626
 30
0.0
 11
12.491556
 21
36.502626
 31
0.0
  0
LINE
  5
2a2
100
AcDbEntity
  8
Layer_1
 62
7
100
AcDbLine
 10
12.491556
 20
36.502626
 30
0.0
 11
12.491556
 21
37.002626
 31
0.0
  0
LINE
  5
2a3
100
AcDbEntity
  8
Layer_1
 62
7
100
AcDbLine
 10
326.443498
 20
37.000713
 30
0.0
 11
326.943498
 21
37.000713
 31
0.0
  0
LINE
  5
2a4
100
AcDbEntity
  8
Layer_1
 62
7
100
AcDbLine
 10
326.943498
 20
37.000713
 30
0.0
 11
326.943498
 21
36.500713
 31
0.0
  0
LINE
  5
2a5
100
AcDbEntity
  8
Layer_1
 62
7
100
AcDbLine
 10
326.943498
 20
36.500713
 30
0.0
 11
326.443498
 21
36.500713
 31
0.0
  0
LINE
  5
2a6
100
AcDbEntity
  8
Layer_1
 62
7
100
AcDbLine
 10
326.443498
 20
36.500713
 30
0.0
 11
326.443498
 21
37.000713
 31
0.0
  0
LINE
  5
2a7
100
AcDbEntity
  8
Layer_1
 62
7
100
AcDbLine
 10
229.828548
 20
212.713829
 30
0.0
 11
230.328548
 21
212.713829
 31
0.0
  0
LINE
  5
2a8
100
AcDbEntity
  8
Layer_1
 62
7
100
AcDbLine
 10
230.328548
 20
212.713829
 30
0.0
 11
230.328548
 21
212.213829
 31
0.0
  0
LINE
  5
2a9
100
AcDbEntity
  8
Layer_1
 62
7
100
AcDbLine
 10
230.328548
 20
212.213829
 30
0.0
 11
229.828548
 21
212.213829
 31
0.0
  0
LINE
  5
2aa
100
AcDbEntity
  8
Layer_1
 62
7
100
AcDbLine
 10
229.828548
 20
212.213829
 30
0.0
 11
229.828548
 21
212.713829
 31
0.0
  0
LINE
  5
2ab
100
AcDbEntity
  8
Layer_1
 62
7
100
AcDbLine
 10
229.849201
 20
72.766284
 30
0.0
 11
230.349201
 21
72.766284
 31
0.0
  0
LINE
  5
2ac
100
AcDbEntity
  8
Layer_1
 62
7
100
AcDbLine
 10
230.349201
 20
72.766284
 30
0.0
 11
230.349201
 21
72.266284
 31
0.0
  0
LINE
  5
2ad
100
AcDbEntity
  8
Layer_1
 62
7
100
AcDbLine
 10
230.349201
 20
72.266284
 30
0.0
 11
229.849201
 21
72.266284
 31
0.0
  0
LINE
  5
2ae
100
AcDbEntity
  8
Layer_1
 62
7
100
AcDbLine
 10
229.849201
 20
72.266284
 30
0.0
 11
229.849201
 21
72.766284
 31
0.0
  0
LINE
  5
2af
100
AcDbEntity
  8
Layer_1
 62
7
100
AcDbLine
 10
326.432198
 20
245.029902
 30
0.0
 11
326.932198
 21
245.029902
 31
0.0
  0
LINE
  5
2b0
100
AcDbEntity
  8
Layer_1
 62
7
100
AcDbLine
 10
326.932198
 20
245.029902
 30
0.0
 11
326.932198
 21
244.529902
 31
0.0
  0
LINE
  5
2b1
100
AcDbEntity
  8
Layer_1
 62
7
100
AcDbLine
 10
326.932198
 20
244.529902
 30
0.0
 11
326.432198
 21
244.529902
 31
0.0
  0
LINE
  5
2b2
100
AcDbEntity
  8
Layer_1
 62
7
100
AcDbLine
 10
326.432198
 20
244.529902
 30
0.0
 11
326.432198
 21
245.029902
 31
0.0
  0
LINE
  5
2b3
100
AcDbEntity
  8
Layer_1
 62
7
100
AcDbLine
 10
126.835775
 20
212.694305
 30
0.0
 11
127.335775
 21
212.694305
 31
0.0
  0
LINE
  5
2b4
100
AcDbEntity
  8
Layer_1
 62
7
100
AcDbLine
 10
127.335775
 20
212.694305
 30
0.0
 11
127.335775
 21
212.194305
 31
0.0
  0
LINE
  5
2b5
100
AcDbEntity
  8
Layer_1
 62
7
100
AcDbLine
 10
127.335775
 20
212.194305
 30
0.0
 11
126.835775
 21
212.194305
 31
0.0
  0
LINE
  5
2b6
100
AcDbEntity
  8
Layer_1
 62
7
100
AcDbLine
 10
126.835775
 20
212.194305
 30
0.0
 11
126.835775
 21
212.694305
 31
0.0
  0
LINE
  5
2b7
100
AcDbEntity
  8
Layer_1
 62
7
100
AcDbLine
 10
126.836732
 20
72.757687
 30
0.0
 11
127.336732
 21
72.757687
 31
0.0
  0
LINE
  5
2b8
100
AcDbEntity
  8
Layer_1
 62
7
100
AcDbLine
 10
127.336732
 20
72.757687
 30
0.0
 11
127.336732
 21
72.257687
 31
0.0
  0
LINE
  5
2b9
100
AcDbEntity
  8
Layer_1
 62
7
100
AcDbLine
 10
127.336732
 20
72.257687
 30
0.0
 11
126.836732
 21
72.257687
 31
0.0
  0
LINE
  5
2ba
100
AcDbEntity
  8
Layer_1
 62
7
100
AcDbLine
 10
126.836732
 20
72.257687
 30
0.0
 11
126.836732
 21
72.757687
 31
0.0
  0
ENDSEC
  0
SECTION
  2
OBJECTS
  0
DICTIONARY
  5
C
330
0
100
AcDbDictionary
  3
ACAD_GROUP
350
D
  3
ACAD_MLINESTYLE
350
17
  0
DICTIONARY
  5
D
330
C
100
AcDbDictionary
  0
DICTIONARY
  5
1A
330
C
100
AcDbDictionary
  0
DICTIONARY
  5
17
330
C
100
AcDbDictionary
  3
STANDARD
350
18
  0
DICTIONARY
  5
19
330
C
100
AcDbDictionary
  0
ENDSEC
  0
EOF
