  0
SECTION
  2
HEADER
  9
$ACADVER
  1
AC1014
  9
$HANDSEED
  5
FFFF
  9
$MEASUREMENT
 70
     1
  0
ENDSEC
  0
SECTION
  2
TABLES
  0
TABLE
  2
VPORT
  5
8
330
0
100
AcDbSymbolTable
 70
     4
  0
VPORT
  5
2E
330
8
100
AcDbSymbolTableRecord
100
AcDbViewportTableRecord
  2
*ACTIVE
 70
     0
 10
0.0
 20
0.0
 11
1.0
 21
1.0
 12
210.0
 22
148.5
 13
0.0
 23
0.0
 14
10.0
 24
10.0
 15
10.0
 25
10.0
 16
0.0
 26
0.0
 36
1.0
 17
0.0
 27
0.0
 37
0.0
 40
341.0
 41
1.24
 42
50.0
 43
0.0
 44
0.0
 50
0.0
 51
0.0
 71
     0
 72
   100
 73
     1
 74
     3
 75
     0
 76
     0
 77
     0
 78
     0
  0
ENDTAB
  0
TABLE
  2
LTYPE
  5
5
330
0
100
AcDbSymbolTable
 70
     1
  0
LTYPE
  5
14
330
5
100
AcDbSymbolTableRecord
100
AcDbLinetypeTableRecord
  2
BYBLOCK
 70
     0
  3

 72
    65
 73
     0
 40
0.0
  0
LTYPE
  5
15
330
5
100
AcDbSymbolTableRecord
100
AcDbLinetypeTableRecord
  2
BYLAYER
 70
     0
  3

 72
    65
 73
     0
 40
0.0
  0
LTYPE
  5
16
330
5
100
AcDbSymbolTableRecord
100
AcDbLinetypeTableRecord
  2
CONTINUOUS
 70
     0
  3
Solid line
 72
    65
 73
     0
 40
0.0
  0
ENDTAB
  0
TABLE
  2
LAYER
  5
2
100
AcDbSymbolTable
 70
2
  0
LAYER
  5
50
100
AcDbSymbolTableRecord
100
AcDbLayerTableRecord
  2
0
 70
0
  6
CONTINUOUS
  0
LAYER
  5
51
100
AcDbSymbolTableRecord
100
AcDbLayerTableRecord
  2
Layer_1
 70
0
  6
CONTINUOUS
  0
ENDTAB
  0
TABLE
  2
STYLE
  5
3
330
0
100
AcDbSymbolTable
 70
     1
  0
STYLE
  5
11
330
3
100
AcDbSymbolTableRecord
100
AcDbTextStyleTableRecord
  2
STANDARD
 70
     0
 40
0.0
 41
1.0
 50
0.0
 71
     0
 42
2.5
  3
txt
  4

  0
ENDTAB
  0
TABLE
  2
VIEW
  5
6
330
0
100
AcDbSymbolTable
 70
     0
  0
ENDTAB
  0
TABLE
  2
UCS
  5
7
330
0
100
AcDbSymbolTable
 70
     0
  0
ENDTAB
  0
TABLE
  2
APPID
  5
9
330
0
100
AcDbSymbolTable
 70
     2
  0
APPID
  5
12
330
9
100
AcDbSymbolTableRecord
100
AcDbRegAppTableRecord
  2
ACAD
 70
     0
  0
ENDTAB
  0
TABLE
  2
DIMSTYLE
  5
A
330
0
100
AcDbSymbolTable
 70
     1
  0
DIMSTYLE
105
27
330
A
100
AcDbSymbolTableRecord
100
AcDbDimStyleTableRecord
  2
ISO-25
 70
     0
  3

  4

  5

  6

  7

 40
1.0
 41
2.5
 42
0.625
 43
3.75
 44
1.25
 45
0.0
 46
0.0
 47
0.0
 48
0.0
140
2.5
141
2.5
142
0.0
143
0.03937007874016
144
1.0
145
0.0
146
1.0
147
0.625
 71
     0
 72
     0
 73
     0
 74
     0
 75
     0
 76
     0
 77
     1
 78
     8
170
     0
171
     3
172
     1
173
     0
174
     0
175
     0
176
     0
177
     0
178
     0
270
     2
271
     2
272
     2
273
     2
274
     3
340
11
275
     0
280
     0
281
     0
282
     0
283
     0
284
     8
285
     0
286
     0
287
     3
288
     0
  0
ENDTAB
  0
TABLE
  2
BLOCK_RECORD
  5
1
330
0
100
AcDbSymbolTable
 70
     1
  0
BLOCK_RECORD
  5
1F
330
1
100
AcDbSymbolTableRecord
100
AcDbBlockTableRecord
  2
*MODEL_SPACE
  0
BLOCK_RECORD
  5
1B
330
1
100
AcDbSymbolTableRecord
100
AcDbBlockTableRecord
  2
*PAPER_SPACE
  0
ENDTAB
  0
ENDSEC
  0
SECTION
  2
BLOCKS
  0
BLOCK
  5
20
330
1F
100
AcDbEntity
  8
0
100
AcDbBlockBegin
  2
*MODEL_SPACE
 70
     0
 10
0.0
 20
0.0
 30
0.0
  3
*MODEL_SPACE
  1

  0
ENDBLK
  5
21
330
1F
100
AcDbEntity
  8
0
100
AcDbBlockEnd
  0
BLOCK
  5
1C
330
1B
100
AcDbEntity
 67
     1
  8
0
100
AcDbBlockBegin
  2
*PAPER_SPACE
  1

  0
ENDBLK
  5
1D
330
1B
100
AcDbEntity
 67
     1
  8
0
100
AcDbBlockEnd
  0
ENDSEC
  0
SECTION
  2
ENTITIES
  0
SPLINE
  5
100
100
AcDbEntity
  8
Layer_1
 62
5
100
AcDbSpline
 70
8
 71
3
 72
8
 73
4
 74
0
 40
0
 40
0
 40
0
 40
0
 40
1
 40
1
 40
1
 40
1
 10
271.998810
 20
216.848238
 30
0.0
 10
270.926599
 20
216.848241
 30
0.0
 10
270.057402
 20
217.717442
 30
0.0
 10
270.057403
 20
218.789653
 30
0.0
  0
SPLINE
  5
101
100
AcDbEntity
  8
Layer_1
 62
5
100
AcDbSpline
 70
8
 71
3
 72
8
 73
4
 74
0
 40
0
 40
0
 40
0
 40
0
 40
1
 40
1
 40
1
 40
1
 10
270.057403
 20
218.789653
 30
0.0
 10
270.057402
 20
219.861864
 30
0.0
 10
270.926599
 20
220.731065
 30
0.0
 10
271.998810
 20
220.731068
 30
0.0
  0
SPLINE
  5
102
100
AcDbEntity
  8
Layer_1
 62
5
100
AcDbSpline
 70
8
 71
3
 72
8
 73
4
 74
0
 40
0
 40
0
 40
0
 40
0
 40
1
 40
1
 40
1
 40
1
 10
271.998810
 20
220.731068
 30
0.0
 10
272.513709
 20
220.731074
 30
0.0
 10
273.007520
 20
220.526535
 30
0.0
 10
273.371611
 20
220.162449
 30
0.0
  0
SPLINE
  5
103
100
AcDbEntity
  8
Layer_1
 62
5
100
AcDbSpline
 70
8
 71
3
 72
8
 73
4
 74
0
 40
0
 40
0
 40
0
 40
0
 40
1
 40
1
 40
1
 40
1
 10
273.371611
 20
220.162449
 30
0.0
 10
273.735701
 20
219.798362
 30
0.0
 10
273.940245
 20
219.304552
 30
0.0
 10
273.940245
 20
218.789653
 30
0.0
  0
SPLINE
  5
104
100
AcDbEntity
  8
Layer_1
 62
5
100
AcDbSpline
 70
8
 71
3
 72
8
 73
4
 74
0
 40
0
 40
0
 40
0
 40
0
 40
1
 40
1
 40
1
 40
1
 10
273.940245
 20
218.789653
 30
0.0
 10
273.940245
 20
218.274754
 30
0.0
 10
273.735701
 20
217.780944
 30
0.0
 10
273.371611
 20
217.416858
 30
0.0
  0
SPLINE
  5
105
100
AcDbEntity
  8
Layer_1
 62
5
100
AcDbSpline
 70
8
 71
3
 72
8
 73
4
 74
0
 40
0
 40
0
 40
0
 40
0
 40
1
 40
1
 40
1
 40
1
 10
273.371611
 20
217.416858
 30
0.0
 10
273.007520
 20
217.052771
 30
0.0
 10
272.513709
 20
216.848232
 30
0.0
 10
271.998810
 20
216.848238
 30
0.0
  0
LINE
  5
106
100
AcDbEntity
  8
Layer_1
 62
5
100
AcDbLine
 10
271.998810
 20
216.848238
 30
0.0
 11
271.998810
 21
216.848238
 31
0.0
  0
SPLINE
  5
107
100
AcDbEntity
  8
Layer_1
 62
5
100
AcDbSpline
 70
8
 71
3
 72
8
 73
4
 74
0
 40
0
 40
0
 40
0
 40
0
 40
1
 40
1
 40
1
 40
1
 10
271.998810
 20
8.848214
 30
0.0
 10
270.926600
 20
8.848217
 30
0.0
 10
270.057404
 20
9.717416
 30
0.0
 10
270.057403
 20
10.789626
 30
0.0
  0
SPLINE
  5
108
100
AcDbEntity
  8
Layer_1
 62
5
100
AcDbSpline
 70
8
 71
3
 72
8
 73
4
 74
0
 40
0
 40
0
 40
0
 40
0
 40
1
 40
1
 40
1
 40
1
 10
270.057403
 20
10.789626
 30
0.0
 10
270.057402
 20
11.861837
 30
0.0
 10
270.926599
 20
12.731038
 30
0.0
 10
271.998810
 20
12.731041
 30
0.0
  0
SPLINE
  5
109
100
AcDbEntity
  8
Layer_1
 62
5
100
AcDbSpline
 70
8
 71
3
 72
8
 73
4
 74
0
 40
0
 40
0
 40
0
 40
0
 40
1
 40
1
 40
1
 40
1
 10
271.998810
 20
12.731041
 30
0.0
 10
272.513709
 20
12.731047
 30
0.0
 10
273.007520
 20
12.526508
 30
0.0
 10
273.371611
 20
12.162422
 30
0.0
  0
SPLINE
  5
10a
100
AcDbEntity
  8
Layer_1
 62
5
100
AcDbSpline
 70
8
 71
3
 72
8
 73
4
 74
0
 40
0
 40
0
 40
0
 40
0
 40
1
 40
1
 40
1
 40
1
 10
273.371611
 20
12.162422
 30
0.0
 10
273.735701
 20
11.798335
 30
0.0
 10
273.940245
 20
11.304525
 30
0.0
 10
273.940245
 20
10.789626
 30
0.0
  0
SPLINE
  5
10b
100
AcDbEntity
  8
Layer_1
 62
5
100
AcDbSpline
 70
8
 71
3
 72
8
 73
4
 74
0
 40
0
 40
0
 40
0
 40
0
 40
1
 40
1
 40
1
 40
1
 10
273.940245
 20
10.789626
 30
0.0
 10
273.940244
 20
10.274728
 30
0.0
 10
273.735700
 20
9.780918
 30
0.0
 10
273.371610
 20
9.416832
 30
0.0
  0
SPLINE
  5
10c
100
AcDbEntity
  8
Layer_1
 62
5
100
AcDbSpline
 70
8
 71
3
 72
8
 73
4
 74
0
 40
0
 40
0
 40
0
 40
0
 40
1
 40
1
 40
1
 40
1
 10
273.371610
 20
9.416832
 30
0.0
 10
273.007519
 20
9.052746
 30
0.0
 10
272.513708
 20
8.848208
 30
0.0
 10
271.998810
 20
8.848214
 30
0.0
  0
LINE
  5
10d
100
AcDbEntity
  8
Layer_1
 62
5
100
AcDbLine
 10
271.998810
 20
8.848214
 30
0.0
 11
271.998810
 21
8.848214
 31
0.0
  0
SPLINE
  5
10e
100
AcDbEntity
  8
Layer_1
 62
5
100
AcDbSpline
 70
8
 71
3
 72
8
 73
4
 74
0
 40
0
 40
0
 40
0
 40
0
 40
1
 40
1
 40
1
 40
1
 10
585.998831
 20
216.848238
 30
0.0
 10
584.926620
 20
216.848241
 30
0.0
 10
584.057423
 20
217.717442
 30
0.0
 10
584.057424
 20
218.789653
 30
0.0
  0
SPLINE
  5
10f
100
AcDbEntity
  8
Layer_1
 62
5
100
AcDbSpline
 70
8
 71
3
 72
8
 73
4
 74
0
 40
0
 40
0
 40
0
 40
0
 40
1
 40
1
 40
1
 40
1
 10
584.057424
 20
218.789653
 30
0.0
 10
584.057423
 20
219.861864
 30
0.0
 10
584.926620
 20
220.731065
 30
0.0
 10
585.998831
 20
220.731068
 30
0.0
  0
SPLINE
  5
110
100
AcDbEntity
  8
Layer_1
 62
5
100
AcDbSpline
 70
8
 71
3
 72
8
 73
4
 74
0
 40
0
 40
0
 40
0
 40
0
 40
1
 40
1
 40
1
 40
1
 10
585.998831
 20
220.731068
 30
0.0
 10
587.071042
 20
220.731065
 30
0.0
 10
587.940238
 20
219.861864
 30
0.0
 10
587.940237
 20
218.789653
 30
0.0
  0
SPLINE
  5
111
100
AcDbEntity
  8
Layer_1
 62
5
100
AcDbSpline
 70
8
 71
3
 72
8
 73
4
 74
0
 40
0
 40
0
 40
0
 40
0
 40
1
 40
1
 40
1
 40
1
 10
587.940237
 20
218.789653
 30
0.0
 10
587.940238
 20
217.717442
 30
0.0
 10
587.071042
 20
216.848241
 30
0.0
 10
585.998831
 20
216.848238
 30
0.0
  0
LINE
  5
112
100
AcDbEntity
  8
Layer_1
 62
5
100
AcDbLine
 10
585.998831
 20
216.848238
 30
0.0
 11
585.998831
 21
216.848238
 31
0.0
  0
SPLINE
  5
113
100
AcDbEntity
  8
Layer_1
 62
5
100
AcDbSpline
 70
8
 71
3
 72
8
 73
4
 74
0
 40
0
 40
0
 40
0
 40
0
 40
1
 40
1
 40
1
 40
1
 10
585.998831
 20
8.848214
 30
0.0
 10
584.926621
 20
8.848217
 30
0.0
 10
584.057425
 20
9.717416
 30
0.0
 10
584.057424
 20
10.789626
 30
0.0
  0
SPLINE
  5
114
100
AcDbEntity
  8
Layer_1
 62
5
100
AcDbSpline
 70
8
 71
3
 72
8
 73
4
 74
0
 40
0
 40
0
 40
0
 40
0
 40
1
 40
1
 40
1
 40
1
 10
584.057424
 20
10.789626
 30
0.0
 10
584.057423
 20
11.861837
 30
0.0
 10
584.926620
 20
12.731038
 30
0.0
 10
585.998831
 20
12.731041
 30
0.0
  0
SPLINE
  5
115
100
AcDbEntity
  8
Layer_1
 62
5
100
AcDbSpline
 70
8
 71
3
 72
8
 73
4
 74
0
 40
0
 40
0
 40
0
 40
0
 40
1
 40
1
 40
1
 40
1
 10
585.998831
 20
12.731041
 30
0.0
 10
587.071042
 20
12.731038
 30
0.0
 10
587.940238
 20
11.861837
 30
0.0
 10
587.940237
 20
10.789626
 30
0.0
  0
SPLINE
  5
116
100
AcDbEntity
  8
Layer_1
 62
5
100
AcDbSpline
 70
8
 71
3
 72
8
 73
4
 74
0
 40
0
 40
0
 40
0
 40
0
 40
1
 40
1
 40
1
 40
1
 10
587.940237
 20
10.789626
 30
0.0
 10
587.940237
 20
9.717416
 30
0.0
 10
587.071041
 20
8.848217
 30
0.0
 10
585.998831
 20
8.848214
 30
0.0
  0
LINE
  5
117
100
AcDbEntity
  8
Layer_1
 62
5
100
AcDbLine
 10
585.998831
 20
8.848214
 30
0.0
 11
585.998831
 21
8.848214
 31
0.0
  0
SPLINE
  5
118
100
AcDbEntity
  8
Layer_1
 62
5
100
AcDbSpline
 70
8
 71
3
 72
8
 73
4
 74
0
 40
0
 40
0
 40
0
 40
0
 40
1
 40
1
 40
1
 40
1
 10
368.612158
 20
181.098223
 30
0.0
 10
368.097262
 20
181.098223
 30
0.0
 10
367.603455
 20
181.302764
 30
0.0
 10
367.239369
 20
181.666850
 30
0.0
  0
SPLINE
  5
119
100
AcDbEntity
  8
Layer_1
 62
5
100
AcDbSpline
 70
8
 71
3
 72
8
 73
4
 74
0
 40
0
 40
0
 40
0
 40
0
 40
1
 40
1
 40
1
 40
1
 10
367.239369
 20
181.666850
 30
0.0
 10
366.875283
 20
182.030936
 30
0.0
 10
366.670742
 20
182.524743
 30
0.0
 10
366.670742
 20
183.039639
 30
0.0
  0
SPLINE
  5
11a
100
AcDbEntity
  8
Layer_1
 62
5
100
AcDbSpline
 70
8
 71
3
 72
8
 73
4
 74
0
 40
0
 40
0
 40
0
 40
0
 40
1
 40
1
 40
1
 40
1
 10
366.670742
 20
183.039639
 30
0.0
 10
366.670742
 20
183.554534
 30
0.0
 10
366.875283
 20
184.048341
 30
0.0
 10
367.239369
 20
184.412427
 30
0.0
  0
SPLINE
  5
11b
100
AcDbEntity
  8
Layer_1
 62
5
100
AcDbSpline
 70
8
 71
3
 72
8
 73
4
 74
0
 40
0
 40
0
 40
0
 40
0
 40
1
 40
1
 40
1
 40
1
 10
367.239369
 20
184.412427
 30
0.0
 10
367.603455
 20
184.776513
 30
0.0
 10
368.097262
 20
184.981054
 30
0.0
 10
368.612158
 20
184.981054
 30
0.0
  0
SPLINE
  5
11c
100
AcDbEntity
  8
Layer_1
 62
5
100
AcDbSpline
 70
8
 71
3
 72
8
 73
4
 74
0
 40
0
 40
0
 40
0
 40
0
 40
1
 40
1
 40
1
 40
1
 10
368.612158
 20
184.981054
 30
0.0
 10
369.127052
 20
184.981054
 30
0.0
 10
369.620858
 20
184.776512
 30
0.0
 10
369.984944
 20
184.412426
 30
0.0
  0
SPLINE
  5
11d
100
AcDbEntity
  8
Layer_1
 62
5
100
AcDbSpline
 70
8
 71
3
 72
8
 73
4
 74
0
 40
0
 40
0
 40
0
 40
0
 40
1
 40
1
 40
1
 40
1
 10
369.984944
 20
184.412426
 30
0.0
 10
370.349029
 20
184.048340
 30
0.0
 10
370.553570
 20
183.554534
 30
0.0
 10
370.553570
 20
183.039639
 30
0.0
  0
SPLINE
  5
11e
100
AcDbEntity
  8
Layer_1
 62
5
100
AcDbSpline
 70
8
 71
3
 72
8
 73
4
 74
0
 40
0
 40
0
 40
0
 40
0
 40
1
 40
1
 40
1
 40
1
 10
370.553570
 20
183.039639
 30
0.0
 10
370.553570
 20
182.524744
 30
0.0
 10
370.349029
 20
182.030937
 30
0.0
 10
369.984944
 20
181.666851
 30
0.0
  0
SPLINE
  5
11f
100
AcDbEntity
  8
Layer_1
 62
5
100
AcDbSpline
 70
8
 71
3
 72
8
 73
4
 74
0
 40
0
 40
0
 40
0
 40
0
 40
1
 40
1
 40
1
 40
1
 10
369.984944
 20
181.666851
 30
0.0
 10
369.620858
 20
181.302765
 30
0.0
 10
369.127052
 20
181.098224
 30
0.0
 10
368.612158
 20
181.098223
 30
0.0
  0
LINE
  5
120
100
AcDbEntity
  8
Layer_1
 62
5
100
AcDbLine
 10
368.612158
 20
181.098223
 30
0.0
 11
368.612158
 21
181.098223
 31
0.0
  0
SPLINE
  5
121
100
AcDbEntity
  8
Layer_1
 62
5
100
AcDbSpline
 70
8
 71
3
 72
8
 73
4
 74
0
 40
0
 40
0
 40
0
 40
0
 40
1
 40
1
 40
1
 40
1
 10
368.612158
 20
41.098221
 30
0.0
 10
368.097262
 20
41.098221
 30
0.0
 10
367.603456
 20
41.302762
 30
0.0
 10
367.239370
 20
41.666847
 30
0.0
  0
SPLINE
  5
122
100
AcDbEntity
  8
Layer_1
 62
5
100
AcDbSpline
 70
8
 71
3
 72
8
 73
4
 74
0
 40
0
 40
0
 40
0
 40
0
 40
1
 40
1
 40
1
 40
1
 10
367.239370
 20
41.666847
 30
0.0
 10
366.875284
 20
42.030933
 30
0.0
 10
366.670743
 20
42.524739
 30
0.0
 10
366.670742
 20
43.039634
 30
0.0
  0
SPLINE
  5
123
100
AcDbEntity
  8
Layer_1
 62
5
100
AcDbSpline
 70
8
 71
3
 72
8
 73
4
 74
0
 40
0
 40
0
 40
0
 40
0
 40
1
 40
1
 40
1
 40
1
 10
366.670742
 20
43.039634
 30
0.0
 10
366.670742
 20
43.554529
 30
0.0
 10
366.875283
 20
44.048336
 30
0.0
 10
367.239369
 20
44.412422
 30
0.0
  0
SPLINE
  5
124
100
AcDbEntity
  8
Layer_1
 62
5
100
AcDbSpline
 70
8
 71
3
 72
8
 73
4
 74
0
 40
0
 40
0
 40
0
 40
0
 40
1
 40
1
 40
1
 40
1
 10
367.239369
 20
44.412422
 30
0.0
 10
367.603455
 20
44.776508
 30
0.0
 10
368.097262
 20
44.981049
 30
0.0
 10
368.612158
 20
44.981049
 30
0.0
  0
SPLINE
  5
125
100
AcDbEntity
  8
Layer_1
 62
5
100
AcDbSpline
 70
8
 71
3
 72
8
 73
4
 74
0
 40
0
 40
0
 40
0
 40
0
 40
1
 40
1
 40
1
 40
1
 10
368.612158
 20
44.981049
 30
0.0
 10
369.127053
 20
44.981049
 30
0.0
 10
369.620860
 20
44.776508
 30
0.0
 10
369.984946
 20
44.412422
 30
0.0
  0
SPLINE
  5
126
100
AcDbEntity
  8
Layer_1
 62
5
100
AcDbSpline
 70
8
 71
3
 72
8
 73
4
 74
0
 40
0
 40
0
 40
0
 40
0
 40
1
 40
1
 40
1
 40
1
 10
369.984946
 20
44.412422
 30
0.0
 10
370.349032
 20
44.048336
 30
0.0
 10
370.553573
 20
43.554529
 30
0.0
 10
370.553573
 20
43.039634
 30
0.0
  0
SPLINE
  5
127
100
AcDbEntity
  8
Layer_1
 62
5
100
AcDbSpline
 70
8
 71
3
 72
8
 73
4
 74
0
 40
0
 40
0
 40
0
 40
0
 40
1
 40
1
 40
1
 40
1
 10
370.553573
 20
43.039634
 30
0.0
 10
370.553573
 20
42.524739
 30
0.0
 10
370.349031
 20
42.030933
 30
0.0
 10
369.984945
 20
41.666847
 30
0.0
  0
SPLINE
  5
128
100
AcDbEntity
  8
Layer_1
 62
5
100
AcDbSpline
 70
8
 71
3
 72
8
 73
4
 74
0
 40
0
 40
0
 40
0
 40
0
 40
1
 40
1
 40
1
 40
1
 10
369.984945
 20
41.666847
 30
0.0
 10
369.620859
 20
41.302762
 30
0.0
 10
369.127053
 20
41.098221
 30
0.0
 10
368.612158
 20
41.098221
 30
0.0
  0
LINE
  5
129
100
AcDbEntity
  8
Layer_1
 62
5
100
AcDbLine
 10
368.612158
 20
41.098221
 30
0.0
 11
368.612158
 21
41.098221
 31
0.0
  0
SPLINE
  5
12a
100
AcDbEntity
  8
Layer_1
 62
5
100
AcDbSpline
 70
8
 71
3
 72
8
 73
4
 74
0
 40
0
 40
0
 40
0
 40
0
 40
1
 40
1
 40
1
 40
1
 10
471.612158
 20
41.098218
 30
0.0
 10
471.097262
 20
41.098218
 30
0.0
 10
470.603455
 20
41.302759
 30
0.0
 10
470.239369
 20
41.666845
 30
0.0
  0
SPLINE
  5
12b
100
AcDbEntity
  8
Layer_1
 62
5
100
AcDbSpline
 70
8
 71
3
 72
8
 73
4
 74
0
 40
0
 40
0
 40
0
 40
0
 40
1
 40
1
 40
1
 40
1
 10
470.239369
 20
41.666845
 30
0.0
 10
469.875283
 20
42.030931
 30
0.0
 10
469.670742
 20
42.524738
 30
0.0
 10
469.670742
 20
43.039634
 30
0.0
  0
SPLINE
  5
12c
100
AcDbEntity
  8
Layer_1
 62
5
100
AcDbSpline
 70
8
 71
3
 72
8
 73
4
 74
0
 40
0
 40
0
 40
0
 40
0
 40
1
 40
1
 40
1
 40
1
 10
469.670742
 20
43.039634
 30
0.0
 10
469.670742
 20
43.554529
 30
0.0
 10
469.875283
 20
44.048336
 30
0.0
 10
470.239369
 20
44.412422
 30
0.0
  0
SPLINE
  5
12d
100
AcDbEntity
  8
Layer_1
 62
5
100
AcDbSpline
 70
8
 71
3
 72
8
 73
4
 74
0
 40
0
 40
0
 40
0
 40
0
 40
1
 40
1
 40
1
 40
1
 10
470.239369
 20
44.412422
 30
0.0
 10
470.603455
 20
44.776508
 30
0.0
 10
471.097262
 20
44.981049
 30
0.0
 10
471.612158
 20
44.981049
 30
0.0
  0
SPLINE
  5
12e
100
AcDbEntity
  8
Layer_1
 62
5
100
AcDbSpline
 70
8
 71
3
 72
8
 73
4
 74
0
 40
0
 40
0
 40
0
 40
0
 40
1
 40
1
 40
1
 40
1
 10
471.612158
 20
44.981049
 30
0.0
 10
472.127052
 20
44.981049
 30
0.0
 10
472.620859
 20
44.776507
 30
0.0
 10
472.984944
 20
44.412421
 30
0.0
  0
SPLINE
  5
12f
100
AcDbEntity
  8
Layer_1
 62
5
100
AcDbSpline
 70
8
 71
3
 72
8
 73
4
 74
0
 40
0
 40
0
 40
0
 40
0
 40
1
 40
1
 40
1
 40
1
 10
472.984944
 20
44.412421
 30
0.0
 10
473.349029
 20
44.048335
 30
0.0
 10
473.553570
 20
43.554529
 30
0.0
 10
473.553570
 20
43.039634
 30
0.0
  0
SPLINE
  5
130
100
AcDbEntity
  8
Layer_1
 62
5
100
AcDbSpline
 70
8
 71
3
 72
8
 73
4
 74
0
 40
0
 40
0
 40
0
 40
0
 40
1
 40
1
 40
1
 40
1
 10
473.553570
 20
43.039634
 30
0.0
 10
473.553570
 20
42.524738
 30
0.0
 10
473.349029
 20
42.030932
 30
0.0
 10
472.984944
 20
41.666846
 30
0.0
  0
SPLINE
  5
131
100
AcDbEntity
  8
Layer_1
 62
5
100
AcDbSpline
 70
8
 71
3
 72
8
 73
4
 74
0
 40
0
 40
0
 40
0
 40
0
 40
1
 40
1
 40
1
 40
1
 10
472.984944
 20
41.666846
 30
0.0
 10
472.620859
 20
41.302760
 30
0.0
 10
472.127052
 20
41.098219
 30
0.0
 10
471.612158
 20
41.098218
 30
0.0
  0
LINE
  5
132
100
AcDbEntity
  8
Layer_1
 62
5
100
AcDbLine
 10
471.612158
 20
41.098218
 30
0.0
 11
471.612158
 21
41.098218
 31
0.0
  0
SPLINE
  5
133
100
AcDbEntity
  8
Layer_1
 62
5
100
AcDbSpline
 70
8
 71
3
 72
8
 73
4
 74
0
 40
0
 40
0
 40
0
 40
0
 40
1
 40
1
 40
1
 40
1
 10
471.612158
 20
181.098223
 30
0.0
 10
471.097262
 20
181.098223
 30
0.0
 10
470.603455
 20
181.302764
 30
0.0
 10
470.239369
 20
181.666850
 30
0.0
  0
SPLINE
  5
134
100
AcDbEntity
  8
Layer_1
 62
5
100
AcDbSpline
 70
8
 71
3
 72
8
 73
4
 74
0
 40
0
 40
0
 40
0
 40
0
 40
1
 40
1
 40
1
 40
1
 10
470.239369
 20
181.666850
 30
0.0
 10
469.875283
 20
182.030936
 30
0.0
 10
469.670742
 20
182.524743
 30
0.0
 10
469.670742
 20
183.039639
 30
0.0
  0
SPLINE
  5
135
100
AcDbEntity
  8
Layer_1
 62
5
100
AcDbSpline
 70
8
 71
3
 72
8
 73
4
 74
0
 40
0
 40
0
 40
0
 40
0
 40
1
 40
1
 40
1
 40
1
 10
469.670742
 20
183.039639
 30
0.0
 10
469.670742
 20
183.554534
 30
0.0
 10
469.875283
 20
184.048341
 30
0.0
 10
470.239369
 20
184.412427
 30
0.0
  0
SPLINE
  5
136
100
AcDbEntity
  8
Layer_1
 62
5
100
AcDbSpline
 70
8
 71
3
 72
8
 73
4
 74
0
 40
0
 40
0
 40
0
 40
0
 40
1
 40
1
 40
1
 40
1
 10
470.239369
 20
184.412427
 30
0.0
 10
470.603455
 20
184.776513
 30
0.0
 10
471.097262
 20
184.981054
 30
0.0
 10
471.612158
 20
184.981054
 30
0.0
  0
SPLINE
  5
137
100
AcDbEntity
  8
Layer_1
 62
5
100
AcDbSpline
 70
8
 71
3
 72
8
 73
4
 74
0
 40
0
 40
0
 40
0
 40
0
 40
1
 40
1
 40
1
 40
1
 10
471.612158
 20
184.981054
 30
0.0
 10
472.127052
 20
184.981054
 30
0.0
 10
472.620859
 20
184.776512
 30
0.0
 10
472.984944
 20
184.412426
 30
0.0
  0
SPLINE
  5
138
100
AcDbEntity
  8
Layer_1
 62
5
100
AcDbSpline
 70
8
 71
3
 72
8
 73
4
 74
0
 40
0
 40
0
 40
0
 40
0
 40
1
 40
1
 40
1
 40
1
 10
472.984944
 20
184.412426
 30
0.0
 10
473.349029
 20
184.048340
 30
0.0
 10
473.553570
 20
183.554534
 30
0.0
 10
473.553570
 20
183.039639
 30
0.0
  0
SPLINE
  5
139
100
AcDbEntity
  8
Layer_1
 62
5
100
AcDbSpline
 70
8
 71
3
 72
8
 73
4
 74
0
 40
0
 40
0
 40
0
 40
0
 40
1
 40
1
 40
1
 40
1
 10
473.553570
 20
183.039639
 30
0.0
 10
473.553570
 20
182.524744
 30
0.0
 10
473.349029
 20
182.030937
 30
0.0
 10
472.984944
 20
181.666851
 30
0.0
  0
SPLINE
  5
13a
100
AcDbEntity
  8
Layer_1
 62
5
100
AcDbSpline
 70
8
 71
3
 72
8
 73
4
 74
0
 40
0
 40
0
 40
0
 40
0
 40
1
 40
1
 40
1
 40
1
 10
472.984944
 20
181.666851
 30
0.0
 10
472.620859
 20
181.302765
 30
0.0
 10
472.127052
 20
181.098224
 30
0.0
 10
471.612158
 20
181.098223
 30
0.0
  0
LINE
  5
13b
100
AcDbEntity
  8
Layer_1
 62
5
100
AcDbLine
 10
471.612158
 20
181.098223
 30
0.0
 11
471.612158
 21
181.098223
 31
0.0
  0
LINE
  5
13c
100
AcDbEntity
  8
Layer_1
 62
7
100
AcDbLine
 10
596.058162
 20
227.632770
 30
0.0
 11
598.558143
 21
219.132770
 31
0.0
  0
LINE
  5
13d
100
AcDbEntity
  8
Layer_1
 62
7
100
AcDbLine
 10
598.558143
 20
219.132770
 30
0.0
 11
568.558147
 21
190.132772
 31
0.0
  0
LINE
  5
13e
100
AcDbEntity
  8
Layer_1
 62
7
100
AcDbLine
 10
568.558147
 20
190.132772
 30
0.0
 11
543.558168
 21
167.632772
 31
0.0
  0
LINE
  5
13f
100
AcDbEntity
  8
Layer_1
 62
7
100
AcDbLine
 10
543.558168
 20
167.632772
 30
0.0
 11
543.558168
 21
144.073400
 31
0.0
  0
LINE
  5
140
100
AcDbEntity
  8
Layer_1
 62
7
100
AcDbLine
 10
543.558168
 20
144.073400
 30
0.0
 11
543.558168
 21
133.882773
 31
0.0
  0
LINE
  5
141
100
AcDbEntity
  8
Layer_1
 62
7
100
AcDbLine
 10
543.558168
 20
133.882773
 30
0.0
 11
543.558168
 21
124.507771
 31
0.0
  0
LINE
  5
142
100
AcDbEntity
  8
Layer_1
 62
7
100
AcDbLine
 10
543.558168
 20
124.507771
 30
0.0
 11
543.558168
 21
114.385112
 31
0.0
  0
LINE
  5
143
100
AcDbEntity
  8
Layer_1
 62
7
100
AcDbLine
 10
543.558168
 20
114.385112
 30
0.0
 11
543.558168
 21
105.757771
 31
0.0
  0
LINE
  5
144
100
AcDbEntity
  8
Layer_1
 62
7
100
AcDbLine
 10
543.558168
 20
105.757771
 30
0.0
 11
543.558168
 21
96.382772
 31
0.0
  0
LINE
  5
145
100
AcDbEntity
  8
Layer_1
 62
7
100
AcDbLine
 10
543.558168
 20
96.382772
 30
0.0
 11
543.558168
 21
87.007770
 31
0.0
  0
LINE
  5
146
100
AcDbEntity
  8
Layer_1
 62
7
100
AcDbLine
 10
543.558168
 20
87.007770
 30
0.0
 11
543.558168
 21
65.132771
 31
0.0
  0
LINE
  5
147
100
AcDbEntity
  8
Layer_1
 62
7
100
AcDbLine
 10
543.558168
 20
65.132771
 30
0.0
 11
568.558147
 21
40.132770
 31
0.0
  0
LINE
  5
148
100
AcDbEntity
  8
Layer_1
 62
7
100
AcDbLine
 10
568.558147
 20
40.132770
 30
0.0
 11
598.558143
 21
11.132772
 31
0.0
  0
LINE
  5
149
100
AcDbEntity
  8
Layer_1
 62
7
100
AcDbLine
 10
598.558143
 20
11.132772
 30
0.0
 11
596.058162
 21
2.632752
 31
0.0
  0
LINE
  5
14a
100
AcDbEntity
  8
Layer_1
 62
7
100
AcDbLine
 10
596.058162
 20
2.632752
 30
0.0
 11
587.558165
 21
0.132771
 31
0.0
  0
LINE
  5
14b
100
AcDbEntity
  8
Layer_1
 62
7
100
AcDbLine
 10
587.558165
 20
0.132771
 30
0.0
 11
578.798157
 21
5.266026
 31
0.0
  0
LINE
  5
14c
100
AcDbEntity
  8
Layer_1
 62
7
100
AcDbLine
 10
578.798157
 20
5.266026
 30
0.0
 11
374.998810
 21
5.266026
 31
0.0
  0
LINE
  5
14d
100
AcDbEntity
  8
Layer_1
 62
7
100
AcDbLine
 10
374.998810
 20
5.266026
 30
0.0
 11
359.998812
 21
5.266026
 31
0.0
  0
LINE
  5
14e
100
AcDbEntity
  8
Layer_1
 62
7
100
AcDbLine
 10
359.998812
 20
5.266026
 30
0.0
 11
264.998795
 21
5.266026
 31
0.0
  0
LINE
  5
14f
100
AcDbEntity
  8
Layer_1
 62
7
100
AcDbLine
 10
264.998795
 20
5.266026
 30
0.0
 11
264.998795
 21
20.266016
 31
0.0
  0
LINE
  5
150
100
AcDbEntity
  8
Layer_1
 62
7
100
AcDbLine
 10
264.998795
 20
20.266016
 30
0.0
 11
274.998804
 21
30.266016
 31
0.0
  0
LINE
  5
151
100
AcDbEntity
  8
Layer_1
 62
7
100
AcDbLine
 10
274.998804
 20
30.266016
 30
0.0
 11
316.449910
 21
30.266016
 31
0.0
  0
LINE
  5
152
100
AcDbEntity
  8
Layer_1
 62
7
100
AcDbLine
 10
316.449910
 20
30.266016
 30
0.0
 11
334.354370
 21
30.266016
 31
0.0
  0
LINE
  5
153
100
AcDbEntity
  8
Layer_1
 62
7
100
AcDbLine
 10
334.354370
 20
30.266016
 30
0.0
 11
344.998810
 21
40.266016
 31
0.0
  0
LINE
  5
154
100
AcDbEntity
  8
Layer_1
 62
7
100
AcDbLine
 10
344.998810
 20
40.266016
 30
0.0
 11
344.998810
 21
190.266018
 31
0.0
  0
LINE
  5
155
100
AcDbEntity
  8
Layer_1
 62
7
100
AcDbLine
 10
344.998810
 20
190.266018
 30
0.0
 11
333.789926
 21
200.266017
 31
0.0
  0
LINE
  5
156
100
AcDbEntity
  8
Layer_1
 62
7
100
AcDbLine
 10
333.789926
 20
200.266017
 30
0.0
 11
316.449910
 21
200.266017
 31
0.0
  0
LINE
  5
157
100
AcDbEntity
  8
Layer_1
 62
7
100
AcDbLine
 10
316.449910
 20
200.266017
 30
0.0
 11
274.998804
 21
200.266017
 31
0.0
  0
LINE
  5
158
100
AcDbEntity
  8
Layer_1
 62
7
100
AcDbLine
 10
274.998804
 20
200.266017
 30
0.0
 11
264.998795
 21
210.266017
 31
0.0
  0
LINE
  5
159
100
AcDbEntity
  8
Layer_1
 62
7
100
AcDbLine
 10
264.998795
 20
210.266017
 30
0.0
 11
264.998795
 21
225.266015
 31
0.0
  0
LINE
  5
15a
100
AcDbEntity
  8
Layer_1
 62
7
100
AcDbLine
 10
264.998795
 20
225.266015
 30
0.0
 11
359.998812
 21
225.266015
 31
0.0
  0
LINE
  5
15b
100
AcDbEntity
  8
Layer_1
 62
7
100
AcDbLine
 10
359.998812
 20
225.266015
 30
0.0
 11
374.998810
 21
225.266298
 31
0.0
  0
LINE
  5
15c
100
AcDbEntity
  8
Layer_1
 62
7
100
AcDbLine
 10
374.998810
 20
225.266298
 30
0.0
 11
483.559508
 21
225.266298
 31
0.0
  0
LINE
  5
15d
100
AcDbEntity
  8
Layer_1
 62
7
100
AcDbLine
 10
483.559508
 20
225.266298
 30
0.0
 11
564.753622
 21
225.266371
 31
0.0
  0
LINE
  5
15e
100
AcDbEntity
  8
Layer_1
 62
7
100
AcDbLine
 10
564.753622
 20
225.266371
 30
0.0
 11
580.492845
 21
225.266385
 31
0.0
  0
LINE
  5
15f
100
AcDbEntity
  8
Layer_1
 62
7
100
AcDbLine
 10
580.492845
 20
225.266385
 30
0.0
 11
587.559520
 21
230.133050
 31
0.0
  0
LINE
  5
160
100
AcDbEntity
  8
Layer_1
 62
7
100
AcDbLine
 10
587.559520
 20
230.133050
 30
0.0
 11
596.058162
 21
227.632770
 31
0.0
  0
LINE
  5
161
100
AcDbEntity
  8
Layer_1
 62
5
100
AcDbLine
 10
531.037501
 20
165.158823
 30
0.0
 11
533.506946
 21
166.503787
 31
0.0
  0
LINE
  5
162
100
AcDbEntity
  8
Layer_1
 62
5
100
AcDbLine
 10
533.506946
 20
166.503787
 30
0.0
 11
531.015453
 21
167.870801
 31
0.0
  0
LINE
  5
163
100
AcDbEntity
  8
Layer_1
 62
5
100
AcDbLine
 10
531.015453
 20
167.870801
 30
0.0
 11
531.015453
 21
168.543286
 31
0.0
  0
LINE
  5
164
100
AcDbEntity
  8
Layer_1
 62
5
100
AcDbLine
 10
531.015453
 20
168.543286
 30
0.0
 11
534.146355
 21
166.790420
 31
0.0
  0
LINE
  5
165
100
AcDbEntity
  8
Layer_1
 62
5
100
AcDbLine
 10
534.146355
 20
166.790420
 30
0.0
 11
534.146355
 21
166.200621
 31
0.0
  0
LINE
  5
166
100
AcDbEntity
  8
Layer_1
 62
5
100
AcDbLine
 10
534.146355
 20
166.200621
 30
0.0
 11
531.037501
 21
164.458779
 31
0.0
  0
LINE
  5
167
100
AcDbEntity
  8
Layer_1
 62
5
100
AcDbLine
 10
531.037501
 20
164.458779
 30
0.0
 11
531.037501
 21
165.158823
 31
0.0
  0
LINE
  5
168
100
AcDbEntity
  8
Layer_1
 62
5
100
AcDbLine
 10
531.037501
 20
165.158823
 30
0.0
 11
531.037501
 21
165.158823
 31
0.0
  0
LINE
  5
169
100
AcDbEntity
  8
Layer_1
 62
5
100
AcDbLine
 10
533.121095
 20
161.504266
 30
0.0
 11
530.877649
 21
161.504266
 31
0.0
  0
LINE
  5
16a
100
AcDbEntity
  8
Layer_1
 62
5
100
AcDbLine
 10
530.877649
 20
161.504266
 30
0.0
 11
530.877649
 21
158.665508
 31
0.0
  0
LINE
  5
16b
100
AcDbEntity
  8
Layer_1
 62
5
100
AcDbLine
 10
530.877649
 20
158.665508
 30
0.0
 11
529.940582
 21
158.665508
 31
0.0
  0
LINE
  5
16c
100
AcDbEntity
  8
Layer_1
 62
5
100
AcDbLine
 10
529.940582
 20
158.665508
 30
0.0
 11
529.940582
 21
161.504266
 31
0.0
  0
LINE
  5
16d
100
AcDbEntity
  8
Layer_1
 62
5
100
AcDbLine
 10
529.940582
 20
161.504266
 30
0.0
 11
526.037979
 21
161.504266
 31
0.0
  0
LINE
  5
16e
100
AcDbEntity
  8
Layer_1
 62
5
100
AcDbLine
 10
526.037979
 20
161.504266
 30
0.0
 11
526.037979
 21
162.606696
 31
0.0
  0
LINE
  5
16f
100
AcDbEntity
  8
Layer_1
 62
5
100
AcDbLine
 10
526.037979
 20
162.606696
 30
0.0
 11
534.113283
 21
162.606696
 31
0.0
  0
LINE
  5
170
100
AcDbEntity
  8
Layer_1
 62
5
100
AcDbLine
 10
534.113283
 20
162.606696
 30
0.0
 11
534.113283
 21
157.618198
 31
0.0
  0
LINE
  5
171
100
AcDbEntity
  8
Layer_1
 62
5
100
AcDbLine
 10
534.113283
 20
157.618198
 30
0.0
 11
533.121095
 21
157.618198
 31
0.0
  0
LINE
  5
172
100
AcDbEntity
  8
Layer_1
 62
5
100
AcDbLine
 10
533.121095
 20
157.618198
 30
0.0
 11
533.121095
 21
161.504266
 31
0.0
  0
LINE
  5
173
100
AcDbEntity
  8
Layer_1
 62
5
100
AcDbLine
 10
533.121095
 20
161.504266
 30
0.0
 11
533.121095
 21
161.504266
 31
0.0
  0
SPLINE
  5
174
100
AcDbEntity
  8
Layer_1
 62
5
100
AcDbSpline
 70
8
 71
3
 72
8
 73
4
 74
0
 40
0
 40
0
 40
0
 40
0
 40
1
 40
1
 40
1
 40
1
 10
530.932770
 20
153.550230
 30
0.0
 10
531.090785
 20
153.778064
 30
0.0
 10
531.169793
 20
154.007737
 30
0.0
 10
531.169793
 20
154.239247
 30
0.0
  0
SPLINE
  5
175
100
AcDbEntity
  8
Layer_1
 62
5
100
AcDbSpline
 70
8
 71
3
 72
8
 73
4
 74
0
 40
0
 40
0
 40
0
 40
0
 40
1
 40
1
 40
1
 40
1
 10
531.169793
 20
154.239247
 30
0.0
 10
531.169793
 20
154.610400
 30
0.0
 10
530.998916
 20
154.935617
 30
0.0
 10
530.657163
 20
155.214898
 30
0.0
  0
SPLINE
  5
176
100
AcDbEntity
  8
Layer_1
 62
5
100
AcDbSpline
 70
8
 71
3
 72
8
 73
4
 74
0
 40
0
 40
0
 40
0
 40
0
 40
1
 40
1
 40
1
 40
1
 10
530.657163
 20
155.214898
 30
0.0
 10
530.315409
 20
155.490507
 30
0.0
 10
529.903836
 20
155.628311
 30
0.0
 10
529.422442
 20
155.628311
 30
0.0
  0
LINE
  5
177
100
AcDbEntity
  8
Layer_1
 62
5
100
AcDbLine
 10
529.422442
 20
155.628311
 30
0.0
 11
526.037979
 21
155.628311
 31
0.0
  0
LINE
  5
178
100
AcDbEntity
  8
Layer_1
 62
5
100
AcDbLine
 10
526.037979
 20
155.628311
 30
0.0
 11
526.037979
 21
156.675621
 31
0.0
  0
LINE
  5
179
100
AcDbEntity
  8
Layer_1
 62
5
100
AcDbLine
 10
526.037979
 20
156.675621
 30
0.0
 11
531.941494
 21
156.675621
 31
0.0
  0
LINE
  5
17a
100
AcDbEntity
  8
Layer_1
 62
5
100
AcDbLine
 10
531.941494
 20
156.675621
 30
0.0
 11
531.941494
 21
155.628311
 31
0.0
  0
LINE
  5
17b
100
AcDbEntity
  8
Layer_1
 62
5
100
AcDbLine
 10
531.941494
 20
155.628311
 30
0.0
 11
530.998916
 21
155.628311
 31
0.0
  0
SPLINE
  5
17c
100
AcDbEntity
  8
Layer_1
 62
5
100
AcDbSpline
 70
8
 71
3
 72
8
 73
4
 74
0
 40
0
 40
0
 40
0
 40
0
 40
1
 40
1
 40
1
 40
1
 10
530.998916
 20
155.628311
 30
0.0
 10
531.700797
 20
155.246135
 30
0.0
 10
532.051737
 20
154.678383
 30
0.0
 10
532.051737
 20
153.925055
 30
0.0
  0
SPLINE
  5
17d
100
AcDbEntity
  8
Layer_1
 62
5
100
AcDbSpline
 70
8
 71
3
 72
8
 73
4
 74
0
 40
0
 40
0
 40
0
 40
0
 40
1
 40
1
 40
1
 40
1
 10
532.051737
 20
153.925055
 30
0.0
 10
532.051737
 20
153.737643
 30
0.0
 10
532.018664
 20
153.467547
 30
0.0
 10
531.952519
 20
153.114770
 30
0.0
  0
LINE
  5
17e
100
AcDbEntity
  8
Layer_1
 62
5
100
AcDbLine
 10
531.952519
 20
153.114770
 30
0.0
 11
530.932770
 21
153.550230
 31
0.0
  0
LINE
  5
17f
100
AcDbEntity
  8
Layer_1
 62
5
100
AcDbLine
 10
530.932770
 20
153.550230
 30
0.0
 11
530.932770
 21
153.550230
 31
0.0
  0
SPLINE
  5
180
100
AcDbEntity
  8
Layer_1
 62
5
100
AcDbSpline
 70
8
 71
3
 72
8
 73
4
 74
0
 40
0
 40
0
 40
0
 40
0
 40
1
 40
1
 40
1
 40
1
 10
529.003517
 20
152.756480
 30
0.0
 10
529.914859
 20
152.756480
 30
0.0
 10
530.649813
 20
152.512108
 30
0.0
 10
531.208378
 20
152.023363
 30
0.0
  0
SPLINE
  5
181
100
AcDbEntity
  8
Layer_1
 62
5
100
AcDbSpline
 70
8
 71
3
 72
8
 73
4
 74
0
 40
0
 40
0
 40
0
 40
0
 40
1
 40
1
 40
1
 40
1
 10
531.208378
 20
152.023363
 30
0.0
 10
531.770617
 20
151.530943
 30
0.0
 10
532.051737
 20
150.884184
 30
0.0
 10
532.051737
 20
150.083085
 30
0.0
  0
SPLINE
  5
182
100
AcDbEntity
  8
Layer_1
 62
5
100
AcDbSpline
 70
8
 71
3
 72
8
 73
4
 74
0
 40
0
 40
0
 40
0
 40
0
 40
1
 40
1
 40
1
 40
1
 10
532.051737
 20
150.083085
 30
0.0
 10
532.051737
 20
149.237888
 30
0.0
 10
531.781642
 20
148.581941
 30
0.0
 10
531.241451
 20
148.115245
 30
0.0
  0
SPLINE
  5
183
100
AcDbEntity
  8
Layer_1
 62
5
100
AcDbSpline
 70
8
 71
3
 72
8
 73
4
 74
0
 40
0
 40
0
 40
0
 40
0
 40
1
 40
1
 40
1
 40
1
 10
531.241451
 20
148.115245
 30
0.0
 10
530.704935
 20
147.648551
 30
0.0
 10
529.958957
 20
147.415204
 30
0.0
 10
529.003517
 20
147.415204
 30
0.0
  0
SPLINE
  5
184
100
AcDbEntity
  8
Layer_1
 62
5
100
AcDbSpline
 70
8
 71
3
 72
8
 73
4
 74
0
 40
0
 40
0
 40
0
 40
0
 40
1
 40
1
 40
1
 40
1
 10
529.003517
 20
147.415204
 30
0.0
 10
528.051752
 20
147.415204
 30
0.0
 10
527.300262
 20
147.654064
 30
0.0
 10
526.749047
 20
148.131784
 30
0.0
  0
SPLINE
  5
185
100
AcDbEntity
  8
Layer_1
 62
5
100
AcDbSpline
 70
8
 71
3
 72
8
 73
4
 74
0
 40
0
 40
0
 40
0
 40
0
 40
1
 40
1
 40
1
 40
1
 10
526.749047
 20
148.131784
 30
0.0
 10
526.201505
 20
148.609503
 30
0.0
 10
525.927735
 20
149.259937
 30
0.0
 10
525.927735
 20
150.083085
 30
0.0
  0
SPLINE
  5
186
100
AcDbEntity
  8
Layer_1
 62
5
100
AcDbSpline
 70
8
 71
3
 72
8
 73
4
 74
0
 40
0
 40
0
 40
0
 40
0
 40
1
 40
1
 40
1
 40
1
 10
525.927735
 20
150.083085
 30
0.0
 10
525.927735
 20
150.924608
 30
0.0
 10
526.205180
 20
151.580554
 30
0.0
 10
526.760070
 20
152.050925
 30
0.0
  0
SPLINE
  5
187
100
AcDbEntity
  8
Layer_1
 62
5
100
AcDbSpline
 70
8
 71
3
 72
8
 73
4
 74
0
 40
0
 40
0
 40
0
 40
0
 40
1
 40
1
 40
1
 40
1
 10
526.760070
 20
152.050925
 30
0.0
 10
527.314961
 20
152.521295
 30
0.0
 10
528.062776
 20
152.756480
 30
0.0
 10
529.003517
 20
152.756480
 30
0.0
  0
LINE
  5
188
100
AcDbEntity
  8
Layer_1
 62
5
100
AcDbLine
 10
529.003517
 20
152.756480
 30
0.0
 11
529.003517
 21
152.756480
 31
0.0
  0
SPLINE
  5
189
100
AcDbEntity
  8
Layer_1
 62
5
100
AcDbSpline
 70
8
 71
3
 72
8
 73
4
 74
0
 40
0
 40
0
 40
0
 40
0
 40
1
 40
1
 40
1
 40
1
 10
529.003517
 20
151.654050
 30
0.0
 10
527.522586
 20
151.654050
 30
0.0
 10
526.782120
 20
151.130395
 30
0.0
 10
526.782120
 20
150.083085
 30
0.0
  0
SPLINE
  5
18a
100
AcDbEntity
  8
Layer_1
 62
5
100
AcDbSpline
 70
8
 71
3
 72
8
 73
4
 74
0
 40
0
 40
0
 40
0
 40
0
 40
1
 40
1
 40
1
 40
1
 10
526.782120
 20
150.083085
 30
0.0
 10
526.782120
 20
149.594340
 30
0.0
 10
526.980557
 20
149.212164
 30
0.0
 10
527.377431
 20
148.936557
 30
0.0
  0
SPLINE
  5
18b
100
AcDbEntity
  8
Layer_1
 62
5
100
AcDbSpline
 70
8
 71
3
 72
8
 73
4
 74
0
 40
0
 40
0
 40
0
 40
0
 40
1
 40
1
 40
1
 40
1
 10
527.377431
 20
148.936557
 30
0.0
 10
527.774307
 20
148.657276
 30
0.0
 10
528.316336
 20
148.517635
 30
0.0
 10
529.003517
 20
148.517635
 30
0.0
  0
SPLINE
  5
18c
100
AcDbEntity
  8
Layer_1
 62
5
100
AcDbSpline
 70
8
 71
3
 72
8
 73
4
 74
0
 40
0
 40
0
 40
0
 40
0
 40
1
 40
1
 40
1
 40
1
 10
529.003517
 20
148.517635
 30
0.0
 10
530.466075
 20
148.517635
 30
0.0
 10
531.197354
 20
149.039452
 30
0.0
 10
531.197354
 20
150.083085
 30
0.0
  0
SPLINE
  5
18d
100
AcDbEntity
  8
Layer_1
 62
5
100
AcDbSpline
 70
8
 71
3
 72
8
 73
4
 74
0
 40
0
 40
0
 40
0
 40
0
 40
1
 40
1
 40
1
 40
1
 10
531.197354
 20
150.083085
 30
0.0
 10
531.197354
 20
150.560804
 30
0.0
 10
531.002591
 20
150.942980
 30
0.0
 10
530.613065
 20
151.229613
 30
0.0
  0
SPLINE
  5
18e
100
AcDbEntity
  8
Layer_1
 62
5
100
AcDbSpline
 70
8
 71
3
 72
8
 73
4
 74
0
 40
0
 40
0
 40
0
 40
0
 40
1
 40
1
 40
1
 40
1
 10
530.613065
 20
151.229613
 30
0.0
 10
530.223540
 20
151.512571
 30
0.0
 10
529.687023
 20
151.654050
 30
0.0
 10
529.003517
 20
151.654050
 30
0.0
  0
LINE
  5
18f
100
AcDbEntity
  8
Layer_1
 62
5
100
AcDbLine
 10
529.003517
 20
151.654050
 30
0.0
 11
529.003517
 21
151.654050
 31
0.0
  0
LINE
  5
190
100
AcDbEntity
  8
Layer_1
 62
5
100
AcDbLine
 10
526.037979
 20
142.674752
 30
0.0
 11
529.472051
 21
142.674752
 31
0.0
  0
SPLINE
  5
191
100
AcDbEntity
  8
Layer_1
 62
5
100
AcDbSpline
 70
8
 71
3
 72
8
 73
4
 74
0
 40
0
 40
0
 40
0
 40
0
 40
1
 40
1
 40
1
 40
1
 10
529.472051
 20
142.674752
 30
0.0
 10
530.100436
 20
142.674752
 30
0.0
 10
530.539570
 20
142.770296
 30
0.0
 10
530.789454
 20
142.961385
 30
0.0
  0
SPLINE
  5
192
100
AcDbEntity
  8
Layer_1
 62
5
100
AcDbSpline
 70
8
 71
3
 72
8
 73
4
 74
0
 40
0
 40
0
 40
0
 40
0
 40
1
 40
1
 40
1
 40
1
 10
530.789454
 20
142.961385
 30
0.0
 10
531.043013
 20
143.148797
 30
0.0
 10
531.169793
 20
143.464827
 30
0.0
 10
531.169793
 20
143.909474
 30
0.0
  0
SPLINE
  5
193
100
AcDbEntity
  8
Layer_1
 62
5
100
AcDbSpline
 70
8
 71
3
 72
8
 73
4
 74
0
 40
0
 40
0
 40
0
 40
0
 40
1
 40
1
 40
1
 40
1
 10
531.169793
 20
143.909474
 30
0.0
 10
531.169793
 20
144.148334
 30
0.0
 10
531.098135
 20
144.398218
 30
0.0
 10
530.954819
 20
144.659127
 30
0.0
  0
SPLINE
  5
194
100
AcDbEntity
  8
Layer_1
 62
5
100
AcDbSpline
 70
8
 71
3
 72
8
 73
4
 74
0
 40
0
 40
0
 40
0
 40
0
 40
1
 40
1
 40
1
 40
1
 10
530.954819
 20
144.659127
 30
0.0
 10
530.811503
 20
144.920035
 30
0.0
 10
530.635114
 20
145.120311
 30
0.0
 10
530.425652
 20
145.259952
 30
0.0
  0
LINE
  5
195
100
AcDbEntity
  8
Layer_1
 62
5
100
AcDbLine
 10
530.425652
 20
145.259952
 30
0.0
 11
526.037979
 21
145.259952
 31
0.0
  0
LINE
  5
196
100
AcDbEntity
  8
Layer_1
 62
5
100
AcDbLine
 10
526.037979
 20
145.259952
 30
0.0
 11
526.037979
 21
146.307259
 31
0.0
  0
LINE
  5
197
100
AcDbEntity
  8
Layer_1
 62
5
100
AcDbLine
 10
526.037979
 20
146.307259
 30
0.0
 11
531.941494
 21
146.307259
 31
0.0
  0
LINE
  5
198
100
AcDbEntity
  8
Layer_1
 62
5
100
AcDbLine
 10
531.941494
 20
146.307259
 30
0.0
 11
531.941494
 21
145.590680
 31
0.0
  0
LINE
  5
199
100
AcDbEntity
  8
Layer_1
 62
5
100
AcDbLine
 10
531.941494
 20
145.590680
 30
0.0
 11
531.180817
 21
145.259952
 31
0.0
  0
SPLINE
  5
19a
100
AcDbEntity
  8
Layer_1
 62
5
100
AcDbSpline
 70
8
 71
3
 72
8
 73
4
 74
0
 40
0
 40
0
 40
0
 40
0
 40
1
 40
1
 40
1
 40
1
 10
531.180817
 20
145.259952
 30
0.0
 10
531.761431
 20
144.914524
 30
0.0
 10
532.051737
 20
144.350446
 30
0.0
 10
532.051737
 20
143.567720
 30
0.0
  0
SPLINE
  5
19b
100
AcDbEntity
  8
Layer_1
 62
5
100
AcDbSpline
 70
8
 71
3
 72
8
 73
4
 74
0
 40
0
 40
0
 40
0
 40
0
 40
1
 40
1
 40
1
 40
1
 10
532.051737
 20
143.567720
 30
0.0
 10
532.051737
 20
142.274201
 30
0.0
 10
531.265337
 20
141.627442
 30
0.0
 10
529.692537
 20
141.627442
 30
0.0
  0
LINE
  5
19c
100
AcDbEntity
  8
Layer_1
 62
5
100
AcDbLine
 10
529.692537
 20
141.627442
 30
0.0
 11
526.037979
 21
141.627442
 31
0.0
  0
LINE
  5
19d
100
AcDbEntity
  8
Layer_1
 62
5
100
AcDbLine
 10
526.037979
 20
141.627442
 30
0.0
 11
526.037979
 21
142.674752
 31
0.0
  0
LINE
  5
19e
100
AcDbEntity
  8
Layer_1
 62
5
100
AcDbLine
 10
526.037979
 20
142.674752
 30
0.0
 11
526.037979
 21
142.674752
 31
0.0
  0
LINE
  5
19f
100
AcDbEntity
  8
Layer_1
 62
5
100
AcDbLine
 10
531.114671
 20
139.758823
 30
0.0
 11
531.114671
 21
140.442329
 31
0.0
  0
LINE
  5
1a0
100
AcDbEntity
  8
Layer_1
 62
5
100
AcDbLine
 10
531.114671
 20
140.442329
 30
0.0
 11
531.941494
 21
140.442329
 31
0.0
  0
LINE
  5
1a1
100
AcDbEntity
  8
Layer_1
 62
5
100
AcDbLine
 10
531.941494
 20
140.442329
 30
0.0
 11
531.941494
 21
139.758823
 31
0.0
  0
LINE
  5
1a2
100
AcDbEntity
  8
Layer_1
 62
5
100
AcDbLine
 10
531.941494
 20
139.758823
 30
0.0
 11
533.176216
 21
139.758823
 31
0.0
  0
LINE
  5
1a3
100
AcDbEntity
  8
Layer_1
 62
5
100
AcDbLine
 10
533.176216
 20
139.758823
 30
0.0
 11
533.578604
 21
138.711513
 31
0.0
  0
LINE
  5
1a4
100
AcDbEntity
  8
Layer_1
 62
5
100
AcDbLine
 10
533.578604
 20
138.711513
 30
0.0
 11
531.941494
 21
138.711513
 31
0.0
  0
LINE
  5
1a5
100
AcDbEntity
  8
Layer_1
 62
5
100
AcDbLine
 10
531.941494
 20
138.711513
 30
0.0
 11
531.941494
 21
137.090940
 31
0.0
  0
LINE
  5
1a6
100
AcDbEntity
  8
Layer_1
 62
5
100
AcDbLine
 10
531.941494
 20
137.090940
 30
0.0
 11
531.114671
 21
137.090940
 31
0.0
  0
LINE
  5
1a7
100
AcDbEntity
  8
Layer_1
 62
5
100
AcDbLine
 10
531.114671
 20
137.090940
 30
0.0
 11
531.114671
 21
138.711513
 31
0.0
  0
LINE
  5
1a8
100
AcDbEntity
  8
Layer_1
 62
5
100
AcDbLine
 10
531.114671
 20
138.711513
 30
0.0
 11
528.182205
 21
138.711513
 31
0.0
  0
SPLINE
  5
1a9
100
AcDbEntity
  8
Layer_1
 62
5
100
AcDbSpline
 70
8
 71
3
 72
8
 73
4
 74
0
 40
0
 40
0
 40
0
 40
0
 40
1
 40
1
 40
1
 40
1
 10
528.182205
 20
138.711513
 30
0.0
 10
527.686113
 20
138.711513
 30
0.0
 10
527.333335
 20
138.628832
 30
0.0
 10
527.123872
 20
138.463468
 30
0.0
  0
SPLINE
  5
1aa
100
AcDbEntity
  8
Layer_1
 62
5
100
AcDbSpline
 70
8
 71
3
 72
8
 73
4
 74
0
 40
0
 40
0
 40
0
 40
0
 40
1
 40
1
 40
1
 40
1
 10
527.123872
 20
138.463468
 30
0.0
 10
526.914410
 20
138.294429
 30
0.0
 10
526.809679
 20
138.024332
 30
0.0
 10
526.809679
 20
137.653180
 30
0.0
  0
SPLINE
  5
1ab
100
AcDbEntity
  8
Layer_1
 62
5
100
AcDbSpline
 70
8
 71
3
 72
8
 73
4
 74
0
 40
0
 40
0
 40
0
 40
0
 40
1
 40
1
 40
1
 40
1
 10
526.809679
 20
137.653180
 30
0.0
 10
526.809679
 20
137.384922
 30
0.0
 10
526.877663
 20
137.107477
 30
0.0
 10
527.013630
 20
136.820845
 30
0.0
  0
LINE
  5
1ac
100
AcDbEntity
  8
Layer_1
 62
5
100
AcDbLine
 10
527.013630
 20
136.820845
 30
0.0
 11
526.093100
 21
136.666506
 31
0.0
  0
SPLINE
  5
1ad
100
AcDbEntity
  8
Layer_1
 62
5
100
AcDbSpline
 70
8
 71
3
 72
8
 73
4
 74
0
 40
0
 40
0
 40
0
 40
0
 40
1
 40
1
 40
1
 40
1
 10
526.093100
 20
136.666506
 30
0.0
 10
525.982857
 20
137.100129
 30
0.0
 10
525.927735
 20
137.576011
 30
0.0
 10
525.927735
 20
138.094152
 30
0.0
  0
SPLINE
  5
1ae
100
AcDbEntity
  8
Layer_1
 62
5
100
AcDbSpline
 70
8
 71
3
 72
8
 73
4
 74
0
 40
0
 40
0
 40
0
 40
0
 40
1
 40
1
 40
1
 40
1
 10
525.927735
 20
138.094152
 30
0.0
 10
525.927735
 20
138.560848
 30
0.0
 10
526.100449
 20
138.955886
 30
0.0
 10
526.445878
 20
139.279266
 30
0.0
  0
SPLINE
  5
1af
100
AcDbEntity
  8
Layer_1
 62
5
100
AcDbSpline
 70
8
 71
3
 72
8
 73
4
 74
0
 40
0
 40
0
 40
0
 40
0
 40
1
 40
1
 40
1
 40
1
 10
526.445878
 20
139.279266
 30
0.0
 10
526.794981
 20
139.598971
 30
0.0
 10
527.234116
 20
139.758823
 30
0.0
 10
527.763283
 20
139.758823
 30
0.0
  0
LINE
  5
1b0
100
AcDbEntity
  8
Layer_1
 62
5
100
AcDbLine
 10
527.763283
 20
139.758823
 30
0.0
 11
531.114671
 21
139.758823
 31
0.0
  0
LINE
  5
1b1
100
AcDbEntity
  8
Layer_1
 62
5
100
AcDbLine
 10
531.114671
 20
139.758823
 30
0.0
 11
531.114671
 21
139.758823
 31
0.0
  0
LINE
  5
1b2
100
AcDbEntity
  8
Layer_1
 62
5
100
AcDbLine
 10
507.705721
 20
124.401201
 30
0.0
 11
497.446227
 21
127.164168
 31
0.0
  0
LINE
  5
1b3
100
AcDbEntity
  8
Layer_1
 62
5
100
AcDbLine
 10
497.446227
 20
127.164168
 30
0.0
 11
497.446227
 21
130.092500
 31
0.0
  0
LINE
  5
1b4
100
AcDbEntity
  8
Layer_1
 62
5
100
AcDbLine
 10
497.446227
 20
130.092500
 30
0.0
 11
504.129712
 21
131.932180
 31
0.0
  0
LINE
  5
1b5
100
AcDbEntity
  8
Layer_1
 62
5
100
AcDbLine
 10
504.129712
 20
131.932180
 30
0.0
 11
497.446227
 21
133.723631
 31
0.0
  0
LINE
  5
1b6
100
AcDbEntity
  8
Layer_1
 62
5
100
AcDbLine
 10
497.446227
 20
133.723631
 30
0.0
 11
497.446227
 21
136.651960
 31
0.0
  0
LINE
  5
1b7
100
AcDbEntity
  8
Layer_1
 62
5
100
AcDbLine
 10
497.446227
 20
136.651960
 30
0.0
 11
507.705721
 21
139.414927
 31
0.0
  0
LINE
  5
1b8
100
AcDbEntity
  8
Layer_1
 62
5
100
AcDbLine
 10
507.705721
 20
139.414927
 30
0.0
 11
507.705721
 21
136.651960
 31
0.0
  0
LINE
  5
1b9
100
AcDbEntity
  8
Layer_1
 62
5
100
AcDbLine
 10
507.705721
 20
136.651960
 30
0.0
 11
500.643277
 21
135.074106
 31
0.0
  0
LINE
  5
1ba
100
AcDbEntity
  8
Layer_1
 62
5
100
AcDbLine
 10
500.643277
 20
135.074106
 30
0.0
 11
507.705721
 21
133.186195
 31
0.0
  0
LINE
  5
1bb
100
AcDbEntity
  8
Layer_1
 62
5
100
AcDbLine
 10
507.705721
 20
133.186195
 30
0.0
 11
507.705721
 21
130.547251
 31
0.0
  0
LINE
  5
1bc
100
AcDbEntity
  8
Layer_1
 62
5
100
AcDbLine
 10
507.705721
 20
130.547251
 30
0.0
 11
500.643277
 21
128.748911
 31
0.0
  0
LINE
  5
1bd
100
AcDbEntity
  8
Layer_1
 62
5
100
AcDbLine
 10
500.643277
 20
128.748911
 30
0.0
 11
507.705721
 21
127.095267
 31
0.0
  0
LINE
  5
1be
100
AcDbEntity
  8
Layer_1
 62
5
100
AcDbLine
 10
507.705721
 20
127.095267
 30
0.0
 11
507.705721
 21
124.401201
 31
0.0
  0
LINE
  5
1bf
100
AcDbEntity
  8
Layer_1
 62
5
100
AcDbLine
 10
507.705721
 20
124.401201
 30
0.0
 11
507.705721
 21
124.401201
 31
0.0
  0
LINE
  5
1c0
100
AcDbEntity
  8
Layer_1
 62
5
100
AcDbLine
 10
497.446227
 20
117.950959
 30
0.0
 11
497.446227
 21
120.431427
 31
0.0
  0
LINE
  5
1c1
100
AcDbEntity
  8
Layer_1
 62
5
100
AcDbLine
 10
497.446227
 20
120.431427
 30
0.0
 11
505.183913
 21
120.431427
 31
0.0
  0
LINE
  5
1c2
100
AcDbEntity
  8
Layer_1
 62
5
100
AcDbLine
 10
505.183913
 20
120.431427
 30
0.0
 11
505.183913
 21
117.950959
 31
0.0
  0
LINE
  5
1c3
100
AcDbEntity
  8
Layer_1
 62
5
100
AcDbLine
 10
505.183913
 20
117.950959
 30
0.0
 11
497.446227
 21
117.950959
 31
0.0
  0
LINE
  5
1c4
100
AcDbEntity
  8
Layer_1
 62
5
100
AcDbLine
 10
497.446227
 20
117.950959
 30
0.0
 11
497.446227
 21
117.950959
 31
0.0
  0
LINE
  5
1c5
100
AcDbEntity
  8
Layer_1
 62
5
100
AcDbLine
 10
506.286344
 20
117.882057
 30
0.0
 11
506.286344
 21
120.500329
 31
0.0
  0
LINE
  5
1c6
100
AcDbEntity
  8
Layer_1
 62
5
100
AcDbLine
 10
506.286344
 20
120.500329
 30
0.0
 11
508.167363
 21
120.500329
 31
0.0
  0
LINE
  5
1c7
100
AcDbEntity
  8
Layer_1
 62
5
100
AcDbLine
 10
508.167363
 20
120.500329
 30
0.0
 11
508.167363
 21
117.882057
 31
0.0
  0
LINE
  5
1c8
100
AcDbEntity
  8
Layer_1
 62
5
100
AcDbLine
 10
508.167363
 20
117.882057
 30
0.0
 11
506.286344
 21
117.882057
 31
0.0
  0
LINE
  5
1c9
100
AcDbEntity
  8
Layer_1
 62
5
100
AcDbLine
 10
506.286344
 20
117.882057
 30
0.0
 11
506.286344
 21
117.882057
 31
0.0
  0
LINE
  5
1ca
100
AcDbEntity
  8
Layer_1
 62
5
100
AcDbLine
 10
497.446227
 20
110.791023
 30
0.0
 11
497.446227
 21
113.271492
 31
0.0
  0
LINE
  5
1cb
100
AcDbEntity
  8
Layer_1
 62
5
100
AcDbLine
 10
497.446227
 20
113.271492
 30
0.0
 11
508.167363
 21
113.271492
 31
0.0
  0
LINE
  5
1cc
100
AcDbEntity
  8
Layer_1
 62
5
100
AcDbLine
 10
508.167363
 20
113.271492
 30
0.0
 11
508.167363
 21
110.791023
 31
0.0
  0
LINE
  5
1cd
100
AcDbEntity
  8
Layer_1
 62
5
100
AcDbLine
 10
508.167363
 20
110.791023
 30
0.0
 11
497.446227
 21
110.791023
 31
0.0
  0
LINE
  5
1ce
100
AcDbEntity
  8
Layer_1
 62
5
100
AcDbLine
 10
497.446227
 20
110.791023
 30
0.0
 11
497.446227
 21
110.791023
 31
0.0
  0
SPLINE
  5
1cf
100
AcDbEntity
  8
Layer_1
 62
5
100
AcDbSpline
 70
8
 71
3
 72
8
 73
4
 74
0
 40
0
 40
0
 40
0
 40
0
 40
1
 40
1
 40
1
 40
1
 10
499.899136
 20
99.386731
 30
0.0
 10
499.099873
 20
99.386731
 30
0.0
 10
498.454492
 20
99.745021
 30
0.0
 10
497.962992
 20
100.461600
 30
0.0
  0
SPLINE
  5
1d0
100
AcDbEntity
  8
Layer_1
 62
5
100
AcDbSpline
 70
8
 71
3
 72
8
 73
4
 74
0
 40
0
 40
0
 40
0
 40
0
 40
1
 40
1
 40
1
 40
1
 10
497.962992
 20
100.461600
 30
0.0
 10
497.476086
 20
101.178181
 30
0.0
 10
497.232632
 20
102.158885
 30
0.0
 10
497.232632
 20
103.403713
 30
0.0
  0
SPLINE
  5
1d1
100
AcDbEntity
  8
Layer_1
 62
5
100
AcDbSpline
 70
8
 71
3
 72
8
 73
4
 74
0
 40
0
 40
0
 40
0
 40
0
 40
1
 40
1
 40
1
 40
1
 10
497.232632
 20
103.403713
 30
0.0
 10
497.232632
 20
104.092732
 30
0.0
 10
497.296940
 20
104.717442
 30
0.0
 10
497.425557
 20
105.277843
 30
0.0
  0
SPLINE
  5
1d2
100
AcDbEntity
  8
Layer_1
 62
5
100
AcDbSpline
 70
8
 71
3
 72
8
 73
4
 74
0
 40
0
 40
0
 40
0
 40
0
 40
1
 40
1
 40
1
 40
1
 10
497.425557
 20
105.277843
 30
0.0
 10
497.554173
 20
105.838246
 30
0.0
 10
497.696570
 20
106.288406
 30
0.0
 10
497.852748
 20
106.628322
 30
0.0
  0
LINE
  5
1d3
100
AcDbEntity
  8
Layer_1
 62
5
100
AcDbLine
 10
497.852748
 20
106.628322
 30
0.0
 11
499.892247
 21
106.628322
 31
0.0
  0
LINE
  5
1d4
100
AcDbEntity
  8
Layer_1
 62
5
100
AcDbLine
 10
499.892247
 20
106.628322
 30
0.0
 11
499.892247
 21
106.400947
 31
0.0
  0
SPLINE
  5
1d5
100
AcDbEntity
  8
Layer_1
 62
5
100
AcDbSpline
 70
8
 71
3
 72
8
 73
4
 74
0
 40
0
 40
0
 40
0
 40
0
 40
1
 40
1
 40
1
 40
1
 10
499.892247
 20
106.400947
 30
0.0
 10
499.804970
 20
106.276923
 30
0.0
 10
499.708507
 20
106.134525
 30
0.0
 10
499.602856
 20
105.973753
 30
0.0
  0
SPLINE
  5
1d6
100
AcDbEntity
  8
Layer_1
 62
5
100
AcDbSpline
 70
8
 71
3
 72
8
 73
4
 74
0
 40
0
 40
0
 40
0
 40
0
 40
1
 40
1
 40
1
 40
1
 10
499.602856
 20
105.973753
 30
0.0
 10
499.501802
 20
105.808389
 30
0.0
 10
499.391559
 20
105.576419
 30
0.0
 10
499.272128
 20
105.277843
 30
0.0
  0
SPLINE
  5
1d7
100
AcDbEntity
  8
Layer_1
 62
5
100
AcDbSpline
 70
8
 71
3
 72
8
 73
4
 74
0
 40
0
 40
0
 40
0
 40
0
 40
1
 40
1
 40
1
 40
1
 10
499.272128
 20
105.277843
 30
0.0
 10
499.166479
 20
105.020611
 30
0.0
 10
499.074610
 20
104.728927
 30
0.0
 10
498.996521
 20
104.402791
 30
0.0
  0
SPLINE
  5
1d8
100
AcDbEntity
  8
Layer_1
 62
5
100
AcDbSpline
 70
8
 71
3
 72
8
 73
4
 74
0
 40
0
 40
0
 40
0
 40
0
 40
1
 40
1
 40
1
 40
1
 10
498.996521
 20
104.402791
 30
0.0
 10
498.923025
 20
104.076655
 30
0.0
 10
498.886277
 20
103.727552
 30
0.0
 10
498.886277
 20
103.355481
 30
0.0
  0
SPLINE
  5
1d9
100
AcDbEntity
  8
Layer_1
 62
5
100
AcDbSpline
 70
8
 71
3
 72
8
 73
4
 74
0
 40
0
 40
0
 40
0
 40
0
 40
1
 40
1
 40
1
 40
1
 10
498.886277
 20
103.355481
 30
0.0
 10
498.886277
 20
102.868574
 30
0.0
 10
498.939102
 20
102.507988
 30
0.0
 10
499.044753
 20
102.273720
 30
0.0
  0
SPLINE
  5
1da
100
AcDbEntity
  8
Layer_1
 62
5
100
AcDbSpline
 70
8
 71
3
 72
8
 73
4
 74
0
 40
0
 40
0
 40
0
 40
0
 40
1
 40
1
 40
1
 40
1
 10
499.044753
 20
102.273720
 30
0.0
 10
499.154995
 20
102.039455
 30
0.0
 10
499.315765
 20
101.922323
 30
0.0
 10
499.527065
 20
101.922323
 30
0.0
  0
SPLINE
  5
1db
100
AcDbEntity
  8
Layer_1
 62
5
100
AcDbSpline
 70
8
 71
3
 72
8
 73
4
 74
0
 40
0
 40
0
 40
0
 40
0
 40
1
 40
1
 40
1
 40
1
 10
499.527065
 20
101.922323
 30
0.0
 10
499.715398
 20
101.922323
 30
0.0
 10
499.850905
 20
101.991225
 30
0.0
 10
499.933587
 20
102.129028
 30
0.0
  0
SPLINE
  5
1dc
100
AcDbEntity
  8
Layer_1
 62
5
100
AcDbSpline
 70
8
 71
3
 72
8
 73
4
 74
0
 40
0
 40
0
 40
0
 40
0
 40
1
 40
1
 40
1
 40
1
 10
499.933587
 20
102.129028
 30
0.0
 10
500.020863
 20
102.266831
 30
0.0
 10
500.103545
 20
102.528658
 30
0.0
 10
500.181634
 20
102.914509
 30
0.0
  0
SPLINE
  5
1dd
100
AcDbEntity
  8
Layer_1
 62
5
100
AcDbSpline
 70
8
 71
3
 72
8
 73
4
 74
0
 40
0
 40
0
 40
0
 40
0
 40
1
 40
1
 40
1
 40
1
 10
500.181634
 20
102.914509
 30
0.0
 10
500.222974
 20
103.098247
 30
0.0
 10
500.266612
 20
103.348590
 30
0.0
 10
500.312546
 20
103.665539
 30
0.0
  0
SPLINE
  5
1de
100
AcDbEntity
  8
Layer_1
 62
5
100
AcDbSpline
 70
8
 71
3
 72
8
 73
4
 74
0
 40
0
 40
0
 40
0
 40
0
 40
1
 40
1
 40
1
 40
1
 10
500.312546
 20
103.665539
 30
0.0
 10
500.363075
 20
103.977895
 30
0.0
 10
500.422791
 20
104.262690
 30
0.0
 10
500.491692
 20
104.519924
 30
0.0
  0
SPLINE
  5
1df
100
AcDbEntity
  8
Layer_1
 62
5
100
AcDbSpline
 70
8
 71
3
 72
8
 73
4
 74
0
 40
0
 40
0
 40
0
 40
0
 40
1
 40
1
 40
1
 40
1
 10
500.491692
 20
104.519924
 30
0.0
 10
500.675430
 20
105.222724
 30
0.0
 10
500.960224
 20
105.744081
 30
0.0
 10
501.346075
 20
106.083997
 30
0.0
  0
SPLINE
  5
1e0
100
AcDbEntity
  8
Layer_1
 62
5
100
AcDbSpline
 70
8
 71
3
 72
8
 73
4
 74
0
 40
0
 40
0
 40
0
 40
0
 40
1
 40
1
 40
1
 40
1
 10
501.346075
 20
106.083997
 30
0.0
 10
501.736520
 20
106.423913
 30
0.0
 10
502.221130
 20
106.593871
 30
0.0
 10
502.799906
 20
106.593871
 30
0.0
  0
SPLINE
  5
1e1
100
AcDbEntity
  8
Layer_1
 62
5
100
AcDbSpline
 70
8
 71
3
 72
8
 73
4
 74
0
 40
0
 40
0
 40
0
 40
0
 40
1
 40
1
 40
1
 40
1
 10
502.799906
 20
106.593871
 30
0.0
 10
503.544047
 20
106.593871
 30
0.0
 10
504.161867
 20
106.242471
 30
0.0
 10
504.653367
 20
105.539672
 30
0.0
  0
SPLINE
  5
1e2
100
AcDbEntity
  8
Layer_1
 62
5
100
AcDbSpline
 70
8
 71
3
 72
8
 73
4
 74
0
 40
0
 40
0
 40
0
 40
0
 40
1
 40
1
 40
1
 40
1
 10
504.653367
 20
105.539672
 30
0.0
 10
505.149461
 20
104.832278
 30
0.0
 10
505.397508
 20
103.867651
 30
0.0
 10
505.397508
 20
102.645791
 30
0.0
  0
SPLINE
  5
1e3
100
AcDbEntity
  8
Layer_1
 62
5
100
AcDbSpline
 70
8
 71
3
 72
8
 73
4
 74
0
 40
0
 40
0
 40
0
 40
0
 40
1
 40
1
 40
1
 40
1
 10
505.397508
 20
102.645791
 30
0.0
 10
505.397508
 20
102.067015
 30
0.0
 10
505.337793
 20
101.513503
 30
0.0
 10
505.218364
 20
100.985255
 30
0.0
  0
SPLINE
  5
1e4
100
AcDbEntity
  8
Layer_1
 62
5
100
AcDbSpline
 70
8
 71
3
 72
8
 73
4
 74
0
 40
0
 40
0
 40
0
 40
0
 40
1
 40
1
 40
1
 40
1
 10
505.218364
 20
100.985255
 30
0.0
 10
505.103526
 20
100.452413
 30
0.0
 10
504.979503
 20
100.036706
 30
0.0
 10
504.846294
 20
99.738132
 30
0.0
  0
LINE
  5
1e5
100
AcDbEntity
  8
Layer_1
 62
5
100
AcDbLine
 10
504.846294
 20
99.738132
 30
0.0
 11
502.889478
 21
99.738132
 31
0.0
  0
LINE
  5
1e6
100
AcDbEntity
  8
Layer_1
 62
5
100
AcDbLine
 10
502.889478
 20
99.738132
 30
0.0
 11
502.889478
 21
99.951726
 31
0.0
  0
SPLINE
  5
1e7
100
AcDbEntity
  8
Layer_1
 62
5
100
AcDbSpline
 70
8
 71
3
 72
8
 73
4
 74
0
 40
0
 40
0
 40
0
 40
0
 40
1
 40
1
 40
1
 40
1
 10
502.889478
 20
99.951726
 30
0.0
 10
503.142119
 20
100.319204
 30
0.0
 10
503.346528
 20
100.739506
 30
0.0
 10
503.502704
 20
101.212633
 30
0.0
  0
SPLINE
  5
1e8
100
AcDbEntity
  8
Layer_1
 62
5
100
AcDbSpline
 70
8
 71
3
 72
8
 73
4
 74
0
 40
0
 40
0
 40
0
 40
0
 40
1
 40
1
 40
1
 40
1
 10
503.502704
 20
101.212633
 30
0.0
 10
503.663477
 20
101.681165
 30
0.0
 10
503.743863
 20
102.156588
 30
0.0
 10
503.743863
 20
102.638902
 30
0.0
  0
SPLINE
  5
1e9
100
AcDbEntity
  8
Layer_1
 62
5
100
AcDbSpline
 70
8
 71
3
 72
8
 73
4
 74
0
 40
0
 40
0
 40
0
 40
0
 40
1
 40
1
 40
1
 40
1
 10
503.743863
 20
102.638902
 30
0.0
 10
503.743863
 20
103.038532
 30
0.0
 10
503.688741
 20
103.376152
 30
0.0
 10
503.578498
 20
103.651761
 30
0.0
  0
SPLINE
  5
1ea
100
AcDbEntity
  8
Layer_1
 62
5
100
AcDbSpline
 70
8
 71
3
 72
8
 73
4
 74
0
 40
0
 40
0
 40
0
 40
0
 40
1
 40
1
 40
1
 40
1
 10
503.578498
 20
103.651761
 30
0.0
 10
503.468254
 20
103.922773
 30
0.0
 10
503.312076
 20
104.058279
 30
0.0
 10
503.109964
 20
104.058279
 30
0.0
  0
SPLINE
  5
1eb
100
AcDbEntity
  8
Layer_1
 62
5
100
AcDbSpline
 70
8
 71
3
 72
8
 73
4
 74
0
 40
0
 40
0
 40
0
 40
0
 40
1
 40
1
 40
1
 40
1
 10
503.109964
 20
104.058279
 30
0.0
 10
502.926226
 20
104.058279
 30
0.0
 10
502.786125
 20
103.996269
 30
0.0
 10
502.689662
 20
103.872247
 30
0.0
  0
SPLINE
  5
1ec
100
AcDbEntity
  8
Layer_1
 62
5
100
AcDbSpline
 70
8
 71
3
 72
8
 73
4
 74
0
 40
0
 40
0
 40
0
 40
0
 40
1
 40
1
 40
1
 40
1
 10
502.689662
 20
103.872247
 30
0.0
 10
502.593200
 20
103.748223
 30
0.0
 10
502.496737
 20
103.456538
 30
0.0
 10
502.400274
 20
102.997192
 30
0.0
  0
SPLINE
  5
1ed
100
AcDbEntity
  8
Layer_1
 62
5
100
AcDbSpline
 70
8
 71
3
 72
8
 73
4
 74
0
 40
0
 40
0
 40
0
 40
0
 40
1
 40
1
 40
1
 40
1
 10
502.400274
 20
102.997192
 30
0.0
 10
502.349746
 20
102.744552
 30
0.0
 10
502.299218
 20
102.473538
 30
0.0
 10
502.248689
 20
102.184149
 30
0.0
  0
SPLINE
  5
1ee
100
AcDbEntity
  8
Layer_1
 62
5
100
AcDbSpline
 70
8
 71
3
 72
8
 73
4
 74
0
 40
0
 40
0
 40
0
 40
0
 40
1
 40
1
 40
1
 40
1
 10
502.248689
 20
102.184149
 30
0.0
 10
502.202755
 20
101.890167
 30
0.0
 10
502.143040
 20
101.596186
 30
0.0
 10
502.069546
 20
101.302204
 30
0.0
  0
SPLINE
  5
1ef
100
AcDbEntity
  8
Layer_1
 62
5
100
AcDbSpline
 70
8
 71
3
 72
8
 73
4
 74
0
 40
0
 40
0
 40
0
 40
0
 40
1
 40
1
 40
1
 40
1
 10
502.069546
 20
101.302204
 30
0.0
 10
501.899588
 20
100.649932
 30
0.0
 10
501.630870
 20
100.167619
 30
0.0
 10
501.263392
 20
99.855265
 30
0.0
  0
SPLINE
  5
1f0
100
AcDbEntity
  8
Layer_1
 62
5
100
AcDbSpline
 70
8
 71
3
 72
8
 73
4
 74
0
 40
0
 40
0
 40
0
 40
0
 40
1
 40
1
 40
1
 40
1
 10
501.263392
 20
99.855265
 30
0.0
 10
500.900509
 20
99.542909
 30
0.0
 10
500.445757
 20
99.386731
 30
0.0
 10
499.899136
 20
99.386731
 30
0.0
  0
LINE
  5
1f1
100
AcDbEntity
  8
Layer_1
 62
5
100
AcDbLine
 10
499.899136
 20
99.386731
 30
0.0
 11
499.899136
 21
99.386731
 31
0.0
  0
SPLINE
  5
1f2
100
AcDbEntity
  8
Layer_1
 62
5
100
AcDbSpline
 70
8
 71
3
 72
8
 73
4
 74
0
 40
0
 40
0
 40
0
 40
0
 40
1
 40
1
 40
1
 40
1
 10
501.311624
 20
87.486346
 30
0.0
 10
500.039236
 20
87.486346
 30
0.0
 10
499.035566
 20
87.858415
 30
0.0
 10
498.300612
 20
88.602554
 30
0.0
  0
SPLINE
  5
1f3
100
AcDbEntity
  8
Layer_1
 62
5
100
AcDbSpline
 70
8
 71
3
 72
8
 73
4
 74
0
 40
0
 40
0
 40
0
 40
0
 40
1
 40
1
 40
1
 40
1
 10
498.300612
 20
88.602554
 30
0.0
 10
497.570251
 20
89.342103
 30
0.0
 10
497.205071
 20
90.382521
 30
0.0
 10
497.205071
 20
91.723811
 30
0.0
  0
SPLINE
  5
1f4
100
AcDbEntity
  8
Layer_1
 62
5
100
AcDbSpline
 70
8
 71
3
 72
8
 73
4
 74
0
 40
0
 40
0
 40
0
 40
0
 40
1
 40
1
 40
1
 40
1
 10
497.205071
 20
91.723811
 30
0.0
 10
497.205071
 20
93.065102
 30
0.0
 10
497.570251
 20
94.107818
 30
0.0
 10
498.300612
 20
94.851959
 30
0.0
  0
SPLINE
  5
1f5
100
AcDbEntity
  8
Layer_1
 62
5
100
AcDbSpline
 70
8
 71
3
 72
8
 73
4
 74
0
 40
0
 40
0
 40
0
 40
0
 40
1
 40
1
 40
1
 40
1
 10
498.300612
 20
94.851959
 30
0.0
 10
499.035566
 20
95.591505
 30
0.0
 10
500.039236
 20
95.961279
 30
0.0
 10
501.311624
 20
95.961279
 30
0.0
  0
SPLINE
  5
1f6
100
AcDbEntity
  8
Layer_1
 62
5
100
AcDbSpline
 70
8
 71
3
 72
8
 73
4
 74
0
 40
0
 40
0
 40
0
 40
0
 40
1
 40
1
 40
1
 40
1
 10
501.311624
 20
95.961279
 30
0.0
 10
502.593201
 20
95.961279
 30
0.0
 10
503.599169
 20
95.589208
 30
0.0
 10
504.329528
 20
94.845067
 30
0.0
  0
SPLINE
  5
1f7
100
AcDbEntity
  8
Layer_1
 62
5
100
AcDbSpline
 70
8
 71
3
 72
8
 73
4
 74
0
 40
0
 40
0
 40
0
 40
0
 40
1
 40
1
 40
1
 40
1
 10
504.329528
 20
94.845067
 30
0.0
 10
505.059889
 20
94.096333
 30
0.0
 10
505.425069
 20
93.055915
 30
0.0
 10
505.425069
 20
91.723811
 30
0.0
  0
SPLINE
  5
1f8
100
AcDbEntity
  8
Layer_1
 62
5
100
AcDbSpline
 70
8
 71
3
 72
8
 73
4
 74
0
 40
0
 40
0
 40
0
 40
0
 40
1
 40
1
 40
1
 40
1
 10
505.425069
 20
91.723811
 30
0.0
 10
505.425069
 20
90.373334
 30
0.0
 10
505.057593
 20
89.330619
 30
0.0
 10
504.322639
 20
88.595665
 30
0.0
  0
SPLINE
  5
1f9
100
AcDbEntity
  8
Layer_1
 62
5
100
AcDbSpline
 70
8
 71
3
 72
8
 73
4
 74
0
 40
0
 40
0
 40
0
 40
0
 40
1
 40
1
 40
1
 40
1
 10
504.322639
 20
88.595665
 30
0.0
 10
503.587685
 20
87.856119
 30
0.0
 10
502.584014
 20
87.486346
 30
0.0
 10
501.311624
 20
87.486346
 30
0.0
  0
LINE
  5
1fa
100
AcDbEntity
  8
Layer_1
 62
5
100
AcDbLine
 10
501.311624
 20
87.486346
 30
0.0
 11
501.311624
 21
87.486346
 31
0.0
  0
SPLINE
  5
1fb
100
AcDbEntity
  8
Layer_1
 62
5
100
AcDbSpline
 70
8
 71
3
 72
8
 73
4
 74
0
 40
0
 40
0
 40
0
 40
0
 40
1
 40
1
 40
1
 40
1
 10
499.430602
 20
90.538700
 30
0.0
 10
499.628121
 20
90.377928
 30
0.0
 10
499.864685
 20
90.258497
 30
0.0
 10
500.140292
 20
90.180408
 30
0.0
  0
SPLINE
  5
1fc
100
AcDbEntity
  8
Layer_1
 62
5
100
AcDbSpline
 70
8
 71
3
 72
8
 73
4
 74
0
 40
0
 40
0
 40
0
 40
0
 40
1
 40
1
 40
1
 40
1
 10
500.140292
 20
90.180408
 30
0.0
 10
500.420493
 20
90.097726
 30
0.0
 10
500.806344
 20
90.056385
 30
0.0
 10
501.297843
 20
90.056385
 30
0.0
  0
SPLINE
  5
1fd
100
AcDbEntity
  8
Layer_1
 62
5
100
AcDbSpline
 70
8
 71
3
 72
8
 73
4
 74
0
 40
0
 40
0
 40
0
 40
0
 40
1
 40
1
 40
1
 40
1
 10
501.297843
 20
90.056385
 30
0.0
 10
501.752597
 20
90.056385
 30
0.0
 10
502.133855
 20
90.097726
 30
0.0
 10
502.441616
 20
90.180408
 30
0.0
  0
SPLINE
  5
1fe
100
AcDbEntity
  8
Layer_1
 62
5
100
AcDbSpline
 70
8
 71
3
 72
8
 73
4
 74
0
 40
0
 40
0
 40
0
 40
0
 40
1
 40
1
 40
1
 40
1
 10
502.441616
 20
90.180408
 30
0.0
 10
502.749378
 20
90.263092
 30
0.0
 10
502.995128
 20
90.377929
 30
0.0
 10
503.178866
 20
90.524919
 30
0.0
  0
SPLINE
  5
1ff
100
AcDbEntity
  8
Layer_1
 62
5
100
AcDbSpline
 70
8
 71
3
 72
8
 73
4
 74
0
 40
0
 40
0
 40
0
 40
0
 40
1
 40
1
 40
1
 40
1
 10
503.178866
 20
90.524919
 30
0.0
 10
503.367198
 20
90.671910
 30
0.0
 10
503.500409
 20
90.848758
 30
0.0
 10
503.578498
 20
91.055463
 30
0.0
  0
SPLINE
  5
200
100
AcDbEntity
  8
Layer_1
 62
5
100
AcDbSpline
 70
8
 71
3
 72
8
 73
4
 74
0
 40
0
 40
0
 40
0
 40
0
 40
1
 40
1
 40
1
 40
1
 10
503.578498
 20
91.055463
 30
0.0
 10
503.656587
 20
91.262169
 30
0.0
 10
503.695631
 20
91.484951
 30
0.0
 10
503.695631
 20
91.723811
 30
0.0
  0
SPLINE
  5
201
100
AcDbEntity
  8
Layer_1
 62
5
100
AcDbSpline
 70
8
 71
3
 72
8
 73
4
 74
0
 40
0
 40
0
 40
0
 40
0
 40
1
 40
1
 40
1
 40
1
 10
503.695631
 20
91.723811
 30
0.0
 10
503.695631
 20
91.962672
 30
0.0
 10
503.663477
 20
92.176268
 30
0.0
 10
503.599168
 20
92.364599
 30
0.0
  0
SPLINE
  5
202
100
AcDbEntity
  8
Layer_1
 62
5
100
AcDbSpline
 70
8
 71
3
 72
8
 73
4
 74
0
 40
0
 40
0
 40
0
 40
0
 40
1
 40
1
 40
1
 40
1
 10
503.599168
 20
92.364599
 30
0.0
 10
503.534859
 20
92.548337
 30
0.0
 10
503.406242
 20
92.725185
 30
0.0
 10
503.213316
 20
92.895143
 30
0.0
  0
SPLINE
  5
203
100
AcDbEntity
  8
Layer_1
 62
5
100
AcDbSpline
 70
8
 71
3
 72
8
 73
4
 74
0
 40
0
 40
0
 40
0
 40
0
 40
1
 40
1
 40
1
 40
1
 10
503.213316
 20
92.895143
 30
0.0
 10
503.034173
 20
93.046728
 30
0.0
 10
502.788423
 20
93.168455
 30
0.0
 10
502.476067
 20
93.260324
 30
0.0
  0
SPLINE
  5
204
100
AcDbEntity
  8
Layer_1
 62
5
100
AcDbSpline
 70
8
 71
3
 72
8
 73
4
 74
0
 40
0
 40
0
 40
0
 40
0
 40
1
 40
1
 40
1
 40
1
 10
502.476067
 20
93.260324
 30
0.0
 10
502.163711
 20
93.347601
 30
0.0
 10
501.770970
 20
93.391239
 30
0.0
 10
501.297843
 20
93.391239
 30
0.0
  0
SPLINE
  5
205
100
AcDbEntity
  8
Layer_1
 62
5
100
AcDbSpline
 70
8
 71
3
 72
8
 73
4
 74
0
 40
0
 40
0
 40
0
 40
0
 40
1
 40
1
 40
1
 40
1
 10
501.297843
 20
93.391239
 30
0.0
 10
500.875245
 20
93.391239
 30
0.0
 10
500.507769
 20
93.352194
 30
0.0
 10
500.195413
 20
93.274105
 30
0.0
  0
SPLINE
  5
206
100
AcDbEntity
  8
Layer_1
 62
5
100
AcDbSpline
 70
8
 71
3
 72
8
 73
4
 74
0
 40
0
 40
0
 40
0
 40
0
 40
1
 40
1
 40
1
 40
1
 10
500.195413
 20
93.274105
 30
0.0
 10
499.887651
 20
93.196016
 30
0.0
 10
499.639605
 20
93.081179
 30
0.0
 10
499.451274
 20
92.929594
 30
0.0
  0
SPLINE
  5
207
100
AcDbEntity
  8
Layer_1
 62
5
100
AcDbSpline
 70
8
 71
3
 72
8
 73
4
 74
0
 40
0
 40
0
 40
0
 40
0
 40
1
 40
1
 40
1
 40
1
 10
499.451274
 20
92.929594
 30
0.0
 10
499.272129
 20
92.782603
 30
0.0
 10
499.141215
 20
92.608052
 30
0.0
 10
499.058531
 20
92.405942
 30
0.0
  0
SPLINE
  5
208
100
AcDbEntity
  8
Layer_1
 62
5
100
AcDbSpline
 70
8
 71
3
 72
8
 73
4
 74
0
 40
0
 40
0
 40
0
 40
0
 40
1
 40
1
 40
1
 40
1
 10
499.058531
 20
92.405942
 30
0.0
 10
498.975849
 20
92.199235
 30
0.0
 10
498.934509
 20
91.964968
 30
0.0
 10
498.934509
 20
91.703141
 30
0.0
  0
SPLINE
  5
209
100
AcDbEntity
  8
Layer_1
 62
5
100
AcDbSpline
 70
8
 71
3
 72
8
 73
4
 74
0
 40
0
 40
0
 40
0
 40
0
 40
1
 40
1
 40
1
 40
1
 10
498.934509
 20
91.703141
 30
0.0
 10
498.934509
 20
91.478061
 30
0.0
 10
498.971257
 20
91.264465
 30
0.0
 10
499.044753
 20
91.062352
 30
0.0
  0
SPLINE
  5
20a
100
AcDbEntity
  8
Layer_1
 62
5
100
AcDbSpline
 70
8
 71
3
 72
8
 73
4
 74
0
 40
0
 40
0
 40
0
 40
0
 40
1
 40
1
 40
1
 40
1
 10
499.044753
 20
91.062352
 30
0.0
 10
499.122840
 20
90.855647
 30
0.0
 10
499.251456
 20
90.681097
 30
0.0
 10
499.430602
 20
90.538700
 30
0.0
  0
LINE
  5
20b
100
AcDbEntity
  8
Layer_1
 62
5
100
AcDbLine
 10
499.430602
 20
90.538700
 30
0.0
 11
499.430602
 21
90.538700
 31
0.0
  0
LINE
  5
20c
100
AcDbEntity
  8
Layer_1
 62
5
100
AcDbLine
 10
497.446227
 20
75.585960
 30
0.0
 11
497.446227
 21
78.080209
 31
0.0
  0
LINE
  5
20d
100
AcDbEntity
  8
Layer_1
 62
5
100
AcDbLine
 10
497.446227
 20
78.080209
 30
0.0
 11
501.284065
 21
78.080209
 31
0.0
  0
SPLINE
  5
20e
100
AcDbEntity
  8
Layer_1
 62
5
100
AcDbSpline
 70
8
 71
3
 72
8
 73
4
 74
0
 40
0
 40
0
 40
0
 40
0
 40
1
 40
1
 40
1
 40
1
 10
501.284065
 20
78.080209
 30
0.0
 10
501.596419
 20
78.080209
 30
0.0
 10
501.906477
 20
78.096286
 30
0.0
 10
502.214238
 20
78.128441
 30
0.0
  0
SPLINE
  5
20f
100
AcDbEntity
  8
Layer_1
 62
5
100
AcDbSpline
 70
8
 71
3
 72
8
 73
4
 74
0
 40
0
 40
0
 40
0
 40
0
 40
1
 40
1
 40
1
 40
1
 10
502.214238
 20
78.128441
 30
0.0
 10
502.526594
 20
78.160595
 30
0.0
 10
502.756268
 20
78.215716
 30
0.0
 10
502.903259
 20
78.293803
 30
0.0
  0
SPLINE
  5
210
100
AcDbEntity
  8
Layer_1
 62
5
100
AcDbSpline
 70
8
 71
3
 72
8
 73
4
 74
0
 40
0
 40
0
 40
0
 40
0
 40
1
 40
1
 40
1
 40
1
 10
502.903259
 20
78.293803
 30
0.0
 10
503.073217
 20
78.385674
 30
0.0
 10
503.197240
 20
78.521181
 30
0.0
 10
503.275329
 20
78.700325
 30
0.0
  0
SPLINE
  5
211
100
AcDbEntity
  8
Layer_1
 62
5
100
AcDbSpline
 70
8
 71
3
 72
8
 73
4
 74
0
 40
0
 40
0
 40
0
 40
0
 40
1
 40
1
 40
1
 40
1
 10
503.275329
 20
78.700325
 30
0.0
 10
503.353418
 20
78.874877
 30
0.0
 10
503.392463
 20
79.120628
 30
0.0
 10
503.392463
 20
79.437577
 30
0.0
  0
SPLINE
  5
212
100
AcDbEntity
  8
Layer_1
 62
5
100
AcDbSpline
 70
8
 71
3
 72
8
 73
4
 74
0
 40
0
 40
0
 40
0
 40
0
 40
1
 40
1
 40
1
 40
1
 10
503.392463
 20
79.437577
 30
0.0
 10
503.392463
 20
79.662656
 30
0.0
 10
503.355714
 20
79.892329
 30
0.0
 10
503.282218
 20
80.126594
 30
0.0
  0
SPLINE
  5
213
100
AcDbEntity
  8
Layer_1
 62
5
100
AcDbSpline
 70
8
 71
3
 72
8
 73
4
 74
0
 40
0
 40
0
 40
0
 40
0
 40
1
 40
1
 40
1
 40
1
 10
503.282218
 20
80.126594
 30
0.0
 10
503.208724
 20
80.356268
 30
0.0
 10
503.091591
 20
80.606613
 30
0.0
 10
502.930820
 20
80.877627
 30
0.0
  0
LINE
  5
214
100
AcDbEntity
  8
Layer_1
 62
5
100
AcDbLine
 10
502.930820
 20
80.877627
 30
0.0
 11
497.446227
 21
80.877627
 31
0.0
  0
LINE
  5
215
100
AcDbEntity
  8
Layer_1
 62
5
100
AcDbLine
 10
497.446227
 20
80.877627
 30
0.0
 11
497.446227
 21
83.358095
 31
0.0
  0
LINE
  5
216
100
AcDbEntity
  8
Layer_1
 62
5
100
AcDbLine
 10
497.446227
 20
83.358095
 30
0.0
 11
505.183913
 21
83.358095
 31
0.0
  0
LINE
  5
217
100
AcDbEntity
  8
Layer_1
 62
5
100
AcDbLine
 10
505.183913
 20
83.358095
 30
0.0
 11
505.183913
 21
80.877627
 31
0.0
  0
LINE
  5
218
100
AcDbEntity
  8
Layer_1
 62
5
100
AcDbLine
 10
505.183913
 20
80.877627
 30
0.0
 11
504.329528
 21
80.877627
 31
0.0
  0
SPLINE
  5
219
100
AcDbEntity
  8
Layer_1
 62
5
100
AcDbSpline
 70
8
 71
3
 72
8
 73
4
 74
0
 40
0
 40
0
 40
0
 40
0
 40
1
 40
1
 40
1
 40
1
 10
504.329528
 20
80.877627
 30
0.0
 10
504.674038
 20
80.436655
 30
0.0
 10
504.938163
 20
80.014056
 30
0.0
 10
505.121901
 20
79.609831
 30
0.0
  0
SPLINE
  5
21a
100
AcDbEntity
  8
Layer_1
 62
5
100
AcDbSpline
 70
8
 71
3
 72
8
 73
4
 74
0
 40
0
 40
0
 40
0
 40
0
 40
1
 40
1
 40
1
 40
1
 10
505.121901
 20
79.609831
 30
0.0
 10
505.305639
 20
79.201013
 30
0.0
 10
505.397508
 20
78.748558
 30
0.0
 10
505.397508
 20
78.252464
 30
0.0
  0
SPLINE
  5
21b
100
AcDbEntity
  8
Layer_1
 62
5
100
AcDbSpline
 70
8
 71
3
 72
8
 73
4
 74
0
 40
0
 40
0
 40
0
 40
0
 40
1
 40
1
 40
1
 40
1
 10
505.397508
 20
78.252464
 30
0.0
 10
505.397508
 20
77.416454
 30
0.0
 10
505.154054
 20
76.764183
 30
0.0
 10
504.667147
 20
76.295650
 30
0.0
  0
SPLINE
  5
21c
100
AcDbEntity
  8
Layer_1
 62
5
100
AcDbSpline
 70
8
 71
3
 72
8
 73
4
 74
0
 40
0
 40
0
 40
0
 40
0
 40
1
 40
1
 40
1
 40
1
 10
504.667147
 20
76.295650
 30
0.0
 10
504.180241
 20
75.822524
 30
0.0
 10
503.452177
 20
75.585960
 30
0.0
 10
502.482956
 20
75.585960
 30
0.0
  0
LINE
  5
21d
100
AcDbEntity
  8
Layer_1
 62
5
100
AcDbLine
 10
502.482956
 20
75.585960
 30
0.0
 11
497.446227
 21
75.585960
 31
0.0
  0
LINE
  5
21e
100
AcDbEntity
  8
Layer_1
 62
5
100
AcDbLine
 10
497.446227
 20
75.585960
 30
0.0
 11
497.446227
 21
75.585960
 31
0.0
  0
SPLINE
  5
21f
100
AcDbEntity
  8
Layer_1
 62
5
100
AcDbSpline
 70
8
 71
3
 72
8
 73
4
 74
0
 40
0
 40
0
 40
0
 40
0
 40
1
 40
1
 40
1
 40
1
 10
506.515099
 20
152.932714
 30
0.0
 10
505.276795
 20
154.171017
 30
0.0
 10
503.566374
 20
154.937206
 30
0.0
 10
501.676532
 20
154.937206
 30
0.0
  0
SPLINE
  5
220
100
AcDbEntity
  8
Layer_1
 62
5
100
AcDbSpline
 70
8
 71
3
 72
8
 73
4
 74
0
 40
0
 40
0
 40
0
 40
0
 40
1
 40
1
 40
1
 40
1
 10
501.676532
 20
154.937206
 30
0.0
 10
497.897139
 20
154.937206
 30
0.0
 10
494.833475
 20
151.873277
 30
0.0
 10
494.833475
 20
148.094144
 30
0.0
  0
SPLINE
  5
221
100
AcDbEntity
  8
Layer_1
 62
5
100
AcDbSpline
 70
8
 71
3
 72
8
 73
4
 74
0
 40
0
 40
0
 40
0
 40
0
 40
1
 40
1
 40
1
 40
1
 10
494.833475
 20
148.094144
 30
0.0
 10
494.833475
 20
144.315013
 30
0.0
 10
497.897139
 20
141.251082
 30
0.0
 10
501.676532
 20
141.251082
 30
0.0
  0
SPLINE
  5
222
100
AcDbEntity
  8
Layer_1
 62
5
100
AcDbSpline
 70
8
 71
3
 72
8
 73
4
 74
0
 40
0
 40
0
 40
0
 40
0
 40
1
 40
1
 40
1
 40
1
 10
501.676532
 20
141.251082
 30
0.0
 10
503.566100
 20
141.251082
 30
0.0
 10
505.276795
 20
142.016996
 30
0.0
 10
506.514964
 20
143.255300
 30
0.0
  0
LINE
  5
223
100
AcDbEntity
  8
Layer_1
 62
5
100
AcDbLine
 10
511.353943
 20
148.094144
 30
0.0
 11
506.515099
 21
152.932714
 31
0.0
  0
LINE
  5
224
100
AcDbEntity
  8
Layer_1
 62
5
100
AcDbLine
 10
506.515099
 20
152.932714
 30
0.0
 11
511.353943
 21
148.094144
 31
0.0
  0
LINE
  5
225
100
AcDbEntity
  8
Layer_1
 62
5
100
AcDbLine
 10
511.353943
 20
148.094144
 30
0.0
 11
511.353943
 21
148.094144
 31
0.0
  0
LINE
  5
226
100
AcDbEntity
  8
Layer_1
 62
5
100
AcDbLine
 10
506.514964
 20
143.255300
 30
0.0
 11
511.353943
 21
148.094144
 31
0.0
  0
LINE
  5
227
100
AcDbEntity
  8
Layer_1
 62
5
100
AcDbLine
 10
511.353943
 20
148.094144
 30
0.0
 11
511.353943
 21
148.094144
 31
0.0
  0
LINE
  5
228
100
AcDbEntity
  8
Layer_1
 62
5
100
AcDbLine
 10
511.353943
 20
148.094144
 30
0.0
 11
506.514964
 21
143.255300
 31
0.0
  0
LINE
  5
229
100
AcDbEntity
  8
Layer_1
 62
5
100
AcDbLine
 10
506.514964
 20
143.255300
 30
0.0
 11
506.514964
 21
143.255300
 31
0.0
  0
LINE
  5
22a
100
AcDbEntity
  8
Layer_1
 62
5
100
AcDbLine
 10
515.539713
 20
157.317143
 30
0.0
 11
515.539713
 21
73.817141
 31
0.0
  0
SPLINE
  5
22b
100
AcDbEntity
  8
Layer_1
 62
5
100
AcDbSpline
 70
8
 71
3
 72
8
 73
4
 74
0
 40
0
 40
0
 40
0
 40
0
 40
1
 40
1
 40
1
 40
1
 10
515.539713
 20
73.817141
 30
0.0
 10
515.539713
 20
72.709142
 30
0.0
 10
514.647713
 20
71.817142
 30
0.0
 10
513.539715
 20
71.817142
 30
0.0
  0
LINE
  5
22c
100
AcDbEntity
  8
Layer_1
 62
5
100
AcDbLine
 10
513.539715
 20
71.817142
 30
0.0
 11
492.539711
 21
71.817142
 31
0.0
  0
SPLINE
  5
22d
100
AcDbEntity
  8
Layer_1
 62
5
100
AcDbSpline
 70
8
 71
3
 72
8
 73
4
 74
0
 40
0
 40
0
 40
0
 40
0
 40
1
 40
1
 40
1
 40
1
 10
492.539711
 20
71.817142
 30
0.0
 10
491.431713
 20
71.817142
 30
0.0
 10
490.539713
 20
72.709142
 30
0.0
 10
490.539713
 20
73.817141
 30
0.0
  0
LINE
  5
22e
100
AcDbEntity
  8
Layer_1
 62
5
100
AcDbLine
 10
490.539713
 20
73.817141
 30
0.0
 11
490.539713
 21
157.317143
 31
0.0
  0
SPLINE
  5
22f
100
AcDbEntity
  8
Layer_1
 62
5
100
AcDbSpline
 70
8
 71
3
 72
8
 73
4
 74
0
 40
0
 40
0
 40
0
 40
0
 40
1
 40
1
 40
1
 40
1
 10
490.539713
 20
157.317143
 30
0.0
 10
490.539713
 20
158.425142
 30
0.0
 10
491.431713
 20
159.317142
 30
0.0
 10
492.539711
 20
159.317142
 30
0.0
  0
LINE
  5
230
100
AcDbEntity
  8
Layer_1
 62
5
100
AcDbLine
 10
492.539711
 20
159.317142
 30
0.0
 11
513.539715
 21
159.317142
 31
0.0
  0
SPLINE
  5
231
100
AcDbEntity
  8
Layer_1
 62
5
100
AcDbSpline
 70
8
 71
3
 72
8
 73
4
 74
0
 40
0
 40
0
 40
0
 40
0
 40
1
 40
1
 40
1
 40
1
 10
513.539715
 20
159.317142
 30
0.0
 10
514.647713
 20
159.317142
 30
0.0
 10
515.539713
 20
158.425142
 30
0.0
 10
515.539713
 20
157.317143
 30
0.0
  0
LINE
  5
232
100
AcDbEntity
  8
Layer_1
 62
5
100
AcDbLine
 10
515.539713
 20
157.317143
 30
0.0
 11
515.539713
 21
157.317143
 31
0.0
  0
SPLINE
  5
233
100
AcDbEntity
  8
Layer_1
 62
5
100
AcDbSpline
 70
8
 71
3
 72
8
 73
4
 74
0
 40
0
 40
0
 40
0
 40
0
 40
1
 40
1
 40
1
 40
1
 10
326.694492
 20
38.681772
 30
0.0
 10
327.766703
 20
38.681769
 30
0.0
 10
328.635900
 20
37.812569
 30
0.0
 10
328.635899
 20
36.740357
 30
0.0
  0
SPLINE
  5
234
100
AcDbEntity
  8
Layer_1
 62
5
100
AcDbSpline
 70
8
 71
3
 72
8
 73
4
 74
0
 40
0
 40
0
 40
0
 40
0
 40
1
 40
1
 40
1
 40
1
 10
328.635899
 20
36.740357
 30
0.0
 10
328.635900
 20
35.668146
 30
0.0
 10
327.766703
 20
34.798946
 30
0.0
 10
326.694492
 20
34.798942
 30
0.0
  0
SPLINE
  5
235
100
AcDbEntity
  8
Layer_1
 62
5
100
AcDbSpline
 70
8
 71
3
 72
8
 73
4
 74
0
 40
0
 40
0
 40
0
 40
0
 40
1
 40
1
 40
1
 40
1
 10
326.694492
 20
34.798942
 30
0.0
 10
326.179594
 20
34.798936
 30
0.0
 10
325.685782
 20
35.003475
 30
0.0
 10
325.321691
 20
35.367562
 30
0.0
  0
SPLINE
  5
236
100
AcDbEntity
  8
Layer_1
 62
5
100
AcDbSpline
 70
8
 71
3
 72
8
 73
4
 74
0
 40
0
 40
0
 40
0
 40
0
 40
1
 40
1
 40
1
 40
1
 10
325.321691
 20
35.367562
 30
0.0
 10
324.957601
 20
35.731648
 30
0.0
 10
324.753057
 20
36.225458
 30
0.0
 10
324.753057
 20
36.740357
 30
0.0
  0
SPLINE
  5
237
100
AcDbEntity
  8
Layer_1
 62
5
100
AcDbSpline
 70
8
 71
3
 72
8
 73
4
 74
0
 40
0
 40
0
 40
0
 40
0
 40
1
 40
1
 40
1
 40
1
 10
324.753057
 20
36.740357
 30
0.0
 10
324.753057
 20
37.255256
 30
0.0
 10
324.957601
 20
37.749066
 30
0.0
 10
325.321691
 20
38.113153
 30
0.0
  0
SPLINE
  5
238
100
AcDbEntity
  8
Layer_1
 62
5
100
AcDbSpline
 70
8
 71
3
 72
8
 73
4
 74
0
 40
0
 40
0
 40
0
 40
0
 40
1
 40
1
 40
1
 40
1
 10
325.321691
 20
38.113153
 30
0.0
 10
325.685782
 20
38.477239
 30
0.0
 10
326.179594
 20
38.681778
 30
0.0
 10
326.694492
 20
38.681772
 30
0.0
  0
LINE
  5
239
100
AcDbEntity
  8
Layer_1
 62
5
100
AcDbLine
 10
326.694492
 20
38.681772
 30
0.0
 11
326.694492
 21
38.681772
 31
0.0
  0
SPLINE
  5
23a
100
AcDbEntity
  8
Layer_1
 62
5
100
AcDbSpline
 70
8
 71
3
 72
8
 73
4
 74
0
 40
0
 40
0
 40
0
 40
0
 40
1
 40
1
 40
1
 40
1
 10
326.694492
 20
246.681800
 30
0.0
 10
327.766703
 20
246.681796
 30
0.0
 10
328.635900
 20
245.812596
 30
0.0
 10
328.635899
 20
244.740384
 30
0.0
  0
SPLINE
  5
23b
100
AcDbEntity
  8
Layer_1
 62
5
100
AcDbSpline
 70
8
 71
3
 72
8
 73
4
 74
0
 40
0
 40
0
 40
0
 40
0
 40
1
 40
1
 40
1
 40
1
 10
328.635899
 20
244.740384
 30
0.0
 10
328.635900
 20
243.668173
 30
0.0
 10
327.766703
 20
242.798973
 30
0.0
 10
326.694492
 20
242.798969
 30
0.0
  0
SPLINE
  5
23c
100
AcDbEntity
  8
Layer_1
 62
5
100
AcDbSpline
 70
8
 71
3
 72
8
 73
4
 74
0
 40
0
 40
0
 40
0
 40
0
 40
1
 40
1
 40
1
 40
1
 10
326.694492
 20
242.798969
 30
0.0
 10
326.179594
 20
242.798963
 30
0.0
 10
325.685782
 20
243.003502
 30
0.0
 10
325.321691
 20
243.367589
 30
0.0
  0
SPLINE
  5
23d
100
AcDbEntity
  8
Layer_1
 62
5
100
AcDbSpline
 70
8
 71
3
 72
8
 73
4
 74
0
 40
0
 40
0
 40
0
 40
0
 40
1
 40
1
 40
1
 40
1
 10
325.321691
 20
243.367589
 30
0.0
 10
324.957601
 20
243.731676
 30
0.0
 10
324.753057
 20
244.225485
 30
0.0
 10
324.753057
 20
244.740384
 30
0.0
  0
SPLINE
  5
23e
100
AcDbEntity
  8
Layer_1
 62
5
100
AcDbSpline
 70
8
 71
3
 72
8
 73
4
 74
0
 40
0
 40
0
 40
0
 40
0
 40
1
 40
1
 40
1
 40
1
 10
324.753057
 20
244.740384
 30
0.0
 10
324.753057
 20
245.255283
 30
0.0
 10
324.957601
 20
245.749093
 30
0.0
 10
325.321691
 20
246.113180
 30
0.0
  0
SPLINE
  5
23f
100
AcDbEntity
  8
Layer_1
 62
5
100
AcDbSpline
 70
8
 71
3
 72
8
 73
4
 74
0
 40
0
 40
0
 40
0
 40
0
 40
1
 40
1
 40
1
 40
1
 10
325.321691
 20
246.113180
 30
0.0
 10
325.685782
 20
246.477267
 30
0.0
 10
326.179594
 20
246.681805
 30
0.0
 10
326.694492
 20
246.681800
 30
0.0
  0
LINE
  5
240
100
AcDbEntity
  8
Layer_1
 62
5
100
AcDbLine
 10
326.694492
 20
246.681800
 30
0.0
 11
326.694492
 21
246.681800
 31
0.0
  0
SPLINE
  5
241
100
AcDbEntity
  8
Layer_1
 62
5
100
AcDbSpline
 70
8
 71
3
 72
8
 73
4
 74
0
 40
0
 40
0
 40
0
 40
0
 40
1
 40
1
 40
1
 40
1
 10
12.694471
 20
38.681772
 30
0.0
 10
13.209370
 20
38.681778
 30
0.0
 10
13.703182
 20
38.477239
 30
0.0
 10
14.067272
 20
38.113153
 30
0.0
  0
SPLINE
  5
242
100
AcDbEntity
  8
Layer_1
 62
5
100
AcDbSpline
 70
8
 71
3
 72
8
 73
4
 74
0
 40
0
 40
0
 40
0
 40
0
 40
1
 40
1
 40
1
 40
1
 10
14.067272
 20
38.113153
 30
0.0
 10
14.431363
 20
37.749066
 30
0.0
 10
14.635907
 20
37.255256
 30
0.0
 10
14.635906
 20
36.740357
 30
0.0
  0
SPLINE
  5
243
100
AcDbEntity
  8
Layer_1
 62
5
100
AcDbSpline
 70
8
 71
3
 72
8
 73
4
 74
0
 40
0
 40
0
 40
0
 40
0
 40
1
 40
1
 40
1
 40
1
 10
14.635906
 20
36.740357
 30
0.0
 10
14.635907
 20
36.225458
 30
0.0
 10
14.431363
 20
35.731648
 30
0.0
 10
14.067272
 20
35.367562
 30
0.0
  0
SPLINE
  5
244
100
AcDbEntity
  8
Layer_1
 62
5
100
AcDbSpline
 70
8
 71
3
 72
8
 73
4
 74
0
 40
0
 40
0
 40
0
 40
0
 40
1
 40
1
 40
1
 40
1
 10
14.067272
 20
35.367562
 30
0.0
 10
13.703182
 20
35.003475
 30
0.0
 10
13.209370
 20
34.798936
 30
0.0
 10
12.694471
 20
34.798942
 30
0.0
  0
SPLINE
  5
245
100
AcDbEntity
  8
Layer_1
 62
5
100
AcDbSpline
 70
8
 71
3
 72
8
 73
4
 74
0
 40
0
 40
0
 40
0
 40
0
 40
1
 40
1
 40
1
 40
1
 10
12.694471
 20
34.798942
 30
0.0
 10
11.622260
 20
34.798946
 30
0.0
 10
10.753064
 20
35.668146
 30
0.0
 10
10.753065
 20
36.740357
 30
0.0
  0
SPLINE
  5
246
100
AcDbEntity
  8
Layer_1
 62
5
100
AcDbSpline
 70
8
 71
3
 72
8
 73
4
 74
0
 40
0
 40
0
 40
0
 40
0
 40
1
 40
1
 40
1
 40
1
 10
10.753065
 20
36.740357
 30
0.0
 10
10.753064
 20
37.812569
 30
0.0
 10
11.622260
 20
38.681769
 30
0.0
 10
12.694471
 20
38.681772
 30
0.0
  0
LINE
  5
247
100
AcDbEntity
  8
Layer_1
 62
5
100
AcDbLine
 10
12.694471
 20
38.681772
 30
0.0
 11
12.694471
 21
38.681772
 31
0.0
  0
SPLINE
  5
248
100
AcDbEntity
  8
Layer_1
 62
5
100
AcDbSpline
 70
8
 71
3
 72
8
 73
4
 74
0
 40
0
 40
0
 40
0
 40
0
 40
1
 40
1
 40
1
 40
1
 10
12.694471
 20
246.681800
 30
0.0
 10
13.209370
 20
246.681805
 30
0.0
 10
13.703182
 20
246.477267
 30
0.0
 10
14.067272
 20
246.113180
 30
0.0
  0
SPLINE
  5
249
100
AcDbEntity
  8
Layer_1
 62
5
100
AcDbSpline
 70
8
 71
3
 72
8
 73
4
 74
0
 40
0
 40
0
 40
0
 40
0
 40
1
 40
1
 40
1
 40
1
 10
14.067272
 20
246.113180
 30
0.0
 10
14.431363
 20
245.749093
 30
0.0
 10
14.635907
 20
245.255283
 30
0.0
 10
14.635906
 20
244.740384
 30
0.0
  0
SPLINE
  5
24a
100
AcDbEntity
  8
Layer_1
 62
5
100
AcDbSpline
 70
8
 71
3
 72
8
 73
4
 74
0
 40
0
 40
0
 40
0
 40
0
 40
1
 40
1
 40
1
 40
1
 10
14.635906
 20
244.740384
 30
0.0
 10
14.635907
 20
244.225485
 30
0.0
 10
14.431363
 20
243.731676
 30
0.0
 10
14.067272
 20
243.367589
 30
0.0
  0
SPLINE
  5
24b
100
AcDbEntity
  8
Layer_1
 62
5
100
AcDbSpline
 70
8
 71
3
 72
8
 73
4
 74
0
 40
0
 40
0
 40
0
 40
0
 40
1
 40
1
 40
1
 40
1
 10
14.067272
 20
243.367589
 30
0.0
 10
13.703182
 20
243.003502
 30
0.0
 10
13.209370
 20
242.798963
 30
0.0
 10
12.694471
 20
242.798969
 30
0.0
  0
SPLINE
  5
24c
100
AcDbEntity
  8
Layer_1
 62
5
100
AcDbSpline
 70
8
 71
3
 72
8
 73
4
 74
0
 40
0
 40
0
 40
0
 40
0
 40
1
 40
1
 40
1
 40
1
 10
12.694471
 20
242.798969
 30
0.0
 10
11.622260
 20
242.798973
 30
0.0
 10
10.753064
 20
243.668173
 30
0.0
 10
10.753065
 20
244.740384
 30
0.0
  0
SPLINE
  5
24d
100
AcDbEntity
  8
Layer_1
 62
5
100
AcDbSpline
 70
8
 71
3
 72
8
 73
4
 74
0
 40
0
 40
0
 40
0
 40
0
 40
1
 40
1
 40
1
 40
1
 10
10.753065
 20
244.740384
 30
0.0
 10
10.753064
 20
245.812596
 30
0.0
 10
11.622260
 20
246.681796
 30
0.0
 10
12.694471
 20
246.681800
 30
0.0
  0
LINE
  5
24e
100
AcDbEntity
  8
Layer_1
 62
5
100
AcDbLine
 10
12.694471
 20
246.681800
 30
0.0
 11
12.694471
 21
246.681800
 31
0.0
  0
SPLINE
  5
24f
100
AcDbEntity
  8
Layer_1
 62
5
100
AcDbSpline
 70
8
 71
3
 72
8
 73
4
 74
0
 40
0
 40
0
 40
0
 40
0
 40
1
 40
1
 40
1
 40
1
 10
230.081161
 20
74.431787
 30
0.0
 10
231.153372
 20
74.431784
 30
0.0
 10
232.022569
 20
73.562583
 30
0.0
 10
232.022568
 20
72.490372
 30
0.0
  0
SPLINE
  5
250
100
AcDbEntity
  8
Layer_1
 62
5
100
AcDbSpline
 70
8
 71
3
 72
8
 73
4
 74
0
 40
0
 40
0
 40
0
 40
0
 40
1
 40
1
 40
1
 40
1
 10
232.022568
 20
72.490372
 30
0.0
 10
232.022569
 20
71.418161
 30
0.0
 10
231.153372
 20
70.548960
 30
0.0
 10
230.081161
 20
70.548957
 30
0.0
  0
SPLINE
  5
251
100
AcDbEntity
  8
Layer_1
 62
5
100
AcDbSpline
 70
8
 71
3
 72
8
 73
4
 74
0
 40
0
 40
0
 40
0
 40
0
 40
1
 40
1
 40
1
 40
1
 10
230.081161
 20
70.548957
 30
0.0
 10
229.566263
 20
70.548951
 30
0.0
 10
229.072451
 20
70.753490
 30
0.0
 10
228.708360
 20
71.117576
 30
0.0
  0
SPLINE
  5
252
100
AcDbEntity
  8
Layer_1
 62
5
100
AcDbSpline
 70
8
 71
3
 72
8
 73
4
 74
0
 40
0
 40
0
 40
0
 40
0
 40
1
 40
1
 40
1
 40
1
 10
228.708360
 20
71.117576
 30
0.0
 10
228.344270
 20
71.481663
 30
0.0
 10
228.139726
 20
71.975473
 30
0.0
 10
228.139727
 20
72.490372
 30
0.0
  0
SPLINE
  5
253
100
AcDbEntity
  8
Layer_1
 62
5
100
AcDbSpline
 70
8
 71
3
 72
8
 73
4
 74
0
 40
0
 40
0
 40
0
 40
0
 40
1
 40
1
 40
1
 40
1
 10
228.139727
 20
72.490372
 30
0.0
 10
228.139726
 20
73.005271
 30
0.0
 10
228.344270
 20
73.499081
 30
0.0
 10
228.708360
 20
73.863167
 30
0.0
  0
SPLINE
  5
254
100
AcDbEntity
  8
Layer_1
 62
5
100
AcDbSpline
 70
8
 71
3
 72
8
 73
4
 74
0
 40
0
 40
0
 40
0
 40
0
 40
1
 40
1
 40
1
 40
1
 10
228.708360
 20
73.863167
 30
0.0
 10
229.072451
 20
74.227254
 30
0.0
 10
229.566263
 20
74.431793
 30
0.0
 10
230.081161
 20
74.431787
 30
0.0
  0
LINE
  5
255
100
AcDbEntity
  8
Layer_1
 62
5
100
AcDbLine
 10
230.081161
 20
74.431787
 30
0.0
 11
230.081161
 21
74.431787
 31
0.0
  0
SPLINE
  5
256
100
AcDbEntity
  8
Layer_1
 62
5
100
AcDbSpline
 70
8
 71
3
 72
8
 73
4
 74
0
 40
0
 40
0
 40
0
 40
0
 40
1
 40
1
 40
1
 40
1
 10
230.081161
 20
214.431789
 30
0.0
 10
231.153372
 20
214.431786
 30
0.0
 10
232.022568
 20
213.562587
 30
0.0
 10
232.022568
 20
212.490377
 30
0.0
  0
SPLINE
  5
257
100
AcDbEntity
  8
Layer_1
 62
5
100
AcDbSpline
 70
8
 71
3
 72
8
 73
4
 74
0
 40
0
 40
0
 40
0
 40
0
 40
1
 40
1
 40
1
 40
1
 10
232.022568
 20
212.490377
 30
0.0
 10
232.022569
 20
211.418166
 30
0.0
 10
231.153373
 20
210.548966
 30
0.0
 10
230.081161
 20
210.548962
 30
0.0
  0
SPLINE
  5
258
100
AcDbEntity
  8
Layer_1
 62
5
100
AcDbSpline
 70
8
 71
3
 72
8
 73
4
 74
0
 40
0
 40
0
 40
0
 40
0
 40
1
 40
1
 40
1
 40
1
 10
230.081161
 20
210.548962
 30
0.0
 10
229.566263
 20
210.548956
 30
0.0
 10
229.072451
 20
210.753495
 30
0.0
 10
228.708360
 20
211.117582
 30
0.0
  0
SPLINE
  5
259
100
AcDbEntity
  8
Layer_1
 62
5
100
AcDbSpline
 70
8
 71
3
 72
8
 73
4
 74
0
 40
0
 40
0
 40
0
 40
0
 40
1
 40
1
 40
1
 40
1
 10
228.708360
 20
211.117582
 30
0.0
 10
228.344270
 20
211.481668
 30
0.0
 10
228.139726
 20
211.975478
 30
0.0
 10
228.139727
 20
212.490377
 30
0.0
  0
SPLINE
  5
25a
100
AcDbEntity
  8
Layer_1
 62
5
100
AcDbSpline
 70
8
 71
3
 72
8
 73
4
 74
0
 40
0
 40
0
 40
0
 40
0
 40
1
 40
1
 40
1
 40
1
 10
228.139727
 20
212.490377
 30
0.0
 10
228.139727
 20
213.005275
 30
0.0
 10
228.344271
 20
213.499084
 30
0.0
 10
228.708361
 20
213.863170
 30
0.0
  0
SPLINE
  5
25b
100
AcDbEntity
  8
Layer_1
 62
5
100
AcDbSpline
 70
8
 71
3
 72
8
 73
4
 74
0
 40
0
 40
0
 40
0
 40
0
 40
1
 40
1
 40
1
 40
1
 10
228.708361
 20
213.863170
 30
0.0
 10
229.072451
 20
214.227256
 30
0.0
 10
229.566263
 20
214.431795
 30
0.0
 10
230.081161
 20
214.431789
 30
0.0
  0
LINE
  5
25c
100
AcDbEntity
  8
Layer_1
 62
5
100
AcDbLine
 10
230.081161
 20
214.431789
 30
0.0
 11
230.081161
 21
214.431789
 31
0.0
  0
SPLINE
  5
25d
100
AcDbEntity
  8
Layer_1
 62
5
100
AcDbSpline
 70
8
 71
3
 72
8
 73
4
 74
0
 40
0
 40
0
 40
0
 40
0
 40
1
 40
1
 40
1
 40
1
 10
127.081142
 20
214.431792
 30
0.0
 10
127.596041
 20
214.431798
 30
0.0
 10
128.089852
 20
214.227259
 30
0.0
 10
128.453943
 20
213.863172
 30
0.0
  0
SPLINE
  5
25e
100
AcDbEntity
  8
Layer_1
 62
5
100
AcDbSpline
 70
8
 71
3
 72
8
 73
4
 74
0
 40
0
 40
0
 40
0
 40
0
 40
1
 40
1
 40
1
 40
1
 10
128.453943
 20
213.863172
 30
0.0
 10
128.818033
 20
213.499086
 30
0.0
 10
129.022577
 20
213.005276
 30
0.0
 10
129.022577
 20
212.490377
 30
0.0
  0
SPLINE
  5
25f
100
AcDbEntity
  8
Layer_1
 62
5
100
AcDbSpline
 70
8
 71
3
 72
8
 73
4
 74
0
 40
0
 40
0
 40
0
 40
0
 40
1
 40
1
 40
1
 40
1
 10
129.022577
 20
212.490377
 30
0.0
 10
129.022577
 20
211.975478
 30
0.0
 10
128.818033
 20
211.481668
 30
0.0
 10
128.453943
 20
211.117581
 30
0.0
  0
SPLINE
  5
260
100
AcDbEntity
  8
Layer_1
 62
5
100
AcDbSpline
 70
8
 71
3
 72
8
 73
4
 74
0
 40
0
 40
0
 40
0
 40
0
 40
1
 40
1
 40
1
 40
1
 10
128.453943
 20
211.117581
 30
0.0
 10
128.089852
 20
210.753495
 30
0.0
 10
127.596041
 20
210.548956
 30
0.0
 10
127.081142
 20
210.548962
 30
0.0
  0
SPLINE
  5
261
100
AcDbEntity
  8
Layer_1
 62
5
100
AcDbSpline
 70
8
 71
3
 72
8
 73
4
 74
0
 40
0
 40
0
 40
0
 40
0
 40
1
 40
1
 40
1
 40
1
 10
127.081142
 20
210.548962
 30
0.0
 10
126.008931
 20
210.548965
 30
0.0
 10
125.139734
 20
211.418166
 30
0.0
 10
125.139735
 20
212.490377
 30
0.0
  0
SPLINE
  5
262
100
AcDbEntity
  8
Layer_1
 62
5
100
AcDbSpline
 70
8
 71
3
 72
8
 73
4
 74
0
 40
0
 40
0
 40
0
 40
0
 40
1
 40
1
 40
1
 40
1
 10
125.139735
 20
212.490377
 30
0.0
 10
125.139734
 20
213.562588
 30
0.0
 10
126.008931
 20
214.431789
 30
0.0
 10
127.081142
 20
214.431792
 30
0.0
  0
LINE
  5
263
100
AcDbEntity
  8
Layer_1
 62
5
100
AcDbLine
 10
127.081142
 20
214.431792
 30
0.0
 11
127.081142
 21
214.431792
 31
0.0
  0
SPLINE
  5
264
100
AcDbEntity
  8
Layer_1
 62
5
100
AcDbSpline
 70
8
 71
3
 72
8
 73
4
 74
0
 40
0
 40
0
 40
0
 40
0
 40
1
 40
1
 40
1
 40
1
 10
127.081142
 20
74.431787
 30
0.0
 10
127.596041
 20
74.431793
 30
0.0
 10
128.089852
 20
74.227254
 30
0.0
 10
128.453943
 20
73.863167
 30
0.0
  0
SPLINE
  5
265
100
AcDbEntity
  8
Layer_1
 62
5
100
AcDbSpline
 70
8
 71
3
 72
8
 73
4
 74
0
 40
0
 40
0
 40
0
 40
0
 40
1
 40
1
 40
1
 40
1
 10
128.453943
 20
73.863167
 30
0.0
 10
128.818033
 20
73.499081
 30
0.0
 10
129.022577
 20
73.005271
 30
0.0
 10
129.022577
 20
72.490372
 30
0.0
  0
SPLINE
  5
266
100
AcDbEntity
  8
Layer_1
 62
5
100
AcDbSpline
 70
8
 71
3
 72
8
 73
4
 74
0
 40
0
 40
0
 40
0
 40
0
 40
1
 40
1
 40
1
 40
1
 10
129.022577
 20
72.490372
 30
0.0
 10
129.022577
 20
71.975473
 30
0.0
 10
128.818033
 20
71.481663
 30
0.0
 10
128.453943
 20
71.117576
 30
0.0
  0
SPLINE
  5
267
100
AcDbEntity
  8
Layer_1
 62
5
100
AcDbSpline
 70
8
 71
3
 72
8
 73
4
 74
0
 40
0
 40
0
 40
0
 40
0
 40
1
 40
1
 40
1
 40
1
 10
128.453943
 20
71.117576
 30
0.0
 10
128.089852
 20
70.753490
 30
0.0
 10
127.596041
 20
70.548951
 30
0.0
 10
127.081142
 20
70.548957
 30
0.0
  0
SPLINE
  5
268
100
AcDbEntity
  8
Layer_1
 62
5
100
AcDbSpline
 70
8
 71
3
 72
8
 73
4
 74
0
 40
0
 40
0
 40
0
 40
0
 40
1
 40
1
 40
1
 40
1
 10
127.081142
 20
70.548957
 30
0.0
 10
126.008931
 20
70.548960
 30
0.0
 10
125.139734
 20
71.418161
 30
0.0
 10
125.139735
 20
72.490372
 30
0.0
  0
SPLINE
  5
269
100
AcDbEntity
  8
Layer_1
 62
5
100
AcDbSpline
 70
8
 71
3
 72
8
 73
4
 74
0
 40
0
 40
0
 40
0
 40
0
 40
1
 40
1
 40
1
 40
1
 10
125.139735
 20
72.490372
 30
0.0
 10
125.139734
 20
73.562583
 30
0.0
 10
126.008931
 20
74.431784
 30
0.0
 10
127.081142
 20
74.431787
 30
0.0
  0
LINE
  5
26a
100
AcDbEntity
  8
Layer_1
 62
5
100
AcDbLine
 10
127.081142
 20
74.431787
 30
0.0
 11
127.081142
 21
74.431787
 31
0.0
  0
LINE
  5
26b
100
AcDbEntity
  8
Layer_1
 62
7
100
AcDbLine
 10
274.894974
 20
30.264362
 30
0.0
 11
238.694499
 21
30.264362
 31
0.0
  0
LINE
  5
26c
100
AcDbEntity
  8
Layer_1
 62
7
100
AcDbLine
 10
238.694499
 20
30.264362
 30
0.0
 11
223.694501
 21
30.264080
 31
0.0
  0
LINE
  5
26d
100
AcDbEntity
  8
Layer_1
 62
7
100
AcDbLine
 10
223.694501
 20
30.264080
 30
0.0
 11
115.133800
 21
30.264080
 31
0.0
  0
LINE
  5
26e
100
AcDbEntity
  8
Layer_1
 62
7
100
AcDbLine
 10
115.133800
 20
30.264080
 30
0.0
 11
20.458235
 21
30.264080
 31
0.0
  0
LINE
  5
26f
100
AcDbEntity
  8
Layer_1
 62
7
100
AcDbLine
 10
20.458235
 20
30.264080
 30
0.0
 11
11.133811
 21
25.397302
 31
0.0
  0
LINE
  5
270
100
AcDbEntity
  8
Layer_1
 62
7
100
AcDbLine
 10
11.133811
 20
25.397302
 30
0.0
 11
2.635168
 21
27.897302
 31
0.0
  0
LINE
  5
271
100
AcDbEntity
  8
Layer_1
 62
7
100
AcDbLine
 10
2.635168
 20
27.897302
 30
0.0
 11
0.135159
 21
36.397302
 31
0.0
  0
LINE
  5
272
100
AcDbEntity
  8
Layer_1
 62
7
100
AcDbLine
 10
0.135159
 20
36.397302
 30
0.0
 11
30.135155
 21
65.397301
 31
0.0
  0
LINE
  5
273
100
AcDbEntity
  8
Layer_1
 62
7
100
AcDbLine
 10
30.135155
 20
65.397301
 30
0.0
 11
55.135162
 21
87.897301
 31
0.0
  0
LINE
  5
274
100
AcDbEntity
  8
Layer_1
 62
7
100
AcDbLine
 10
55.135162
 20
87.897301
 30
0.0
 11
55.135162
 21
111.456673
 31
0.0
  0
LINE
  5
275
100
AcDbEntity
  8
Layer_1
 62
7
100
AcDbLine
 10
55.135162
 20
111.456673
 30
0.0
 11
55.135162
 21
121.647300
 31
0.0
  0
LINE
  5
276
100
AcDbEntity
  8
Layer_1
 62
7
100
AcDbLine
 10
55.135162
 20
121.647300
 30
0.0
 11
55.135162
 21
131.022301
 31
0.0
  0
LINE
  5
277
100
AcDbEntity
  8
Layer_1
 62
7
100
AcDbLine
 10
55.135162
 20
131.022301
 30
0.0
 11
55.135162
 21
141.144960
 31
0.0
  0
LINE
  5
278
100
AcDbEntity
  8
Layer_1
 62
7
100
AcDbLine
 10
55.135162
 20
141.144960
 30
0.0
 11
55.135162
 21
149.772302
 31
0.0
  0
LINE
  5
279
100
AcDbEntity
  8
Layer_1
 62
7
100
AcDbLine
 10
55.135162
 20
149.772302
 30
0.0
 11
55.135162
 21
159.147301
 31
0.0
  0
LINE
  5
27a
100
AcDbEntity
  8
Layer_1
 62
7
100
AcDbLine
 10
55.135162
 20
159.147301
 30
0.0
 11
55.135162
 21
168.522302
 31
0.0
  0
LINE
  5
27b
100
AcDbEntity
  8
Layer_1
 62
7
100
AcDbLine
 10
55.135162
 20
168.522302
 30
0.0
 11
55.135162
 21
190.397302
 31
0.0
  0
LINE
  5
27c
100
AcDbEntity
  8
Layer_1
 62
7
100
AcDbLine
 10
55.135162
 20
190.397302
 30
0.0
 11
30.135155
 21
215.397303
 31
0.0
  0
LINE
  5
27d
100
AcDbEntity
  8
Layer_1
 62
7
100
AcDbLine
 10
30.135155
 20
215.397303
 30
0.0
 11
0.135159
 21
244.397301
 31
0.0
  0
LINE
  5
27e
100
AcDbEntity
  8
Layer_1
 62
7
100
AcDbLine
 10
0.135159
 20
244.397301
 30
0.0
 11
2.635168
 21
252.897301
 31
0.0
  0
LINE
  5
27f
100
AcDbEntity
  8
Layer_1
 62
7
100
AcDbLine
 10
2.635168
 20
252.897301
 30
0.0
 11
11.135165
 21
255.397302
 31
0.0
  0
LINE
  5
280
100
AcDbEntity
  8
Layer_1
 62
7
100
AcDbLine
 10
11.135165
 20
255.397302
 30
0.0
 11
21.024034
 21
250.264080
 31
0.0
  0
LINE
  5
281
100
AcDbEntity
  8
Layer_1
 62
7
100
AcDbLine
 10
21.024034
 20
250.264080
 30
0.0
 11
223.694501
 21
250.264080
 31
0.0
  0
LINE
  5
282
100
AcDbEntity
  8
Layer_1
 62
7
100
AcDbLine
 10
223.694501
 20
250.264080
 30
0.0
 11
238.694499
 21
250.264362
 31
0.0
  0
LINE
  5
283
100
AcDbEntity
  8
Layer_1
 62
7
100
AcDbLine
 10
238.694499
 20
250.264362
 30
0.0
 11
333.694507
 21
250.264362
 31
0.0
  0
LINE
  5
284
100
AcDbEntity
  8
Layer_1
 62
7
100
AcDbLine
 10
333.694507
 20
250.264362
 30
0.0
 11
333.694507
 21
235.264361
 31
0.0
  0
LINE
  5
285
100
AcDbEntity
  8
Layer_1
 62
7
100
AcDbLine
 10
333.694507
 20
235.264361
 30
0.0
 11
323.694498
 21
225.264362
 31
0.0
  0
LINE
  5
286
100
AcDbEntity
  8
Layer_1
 62
7
100
AcDbLine
 10
265.009971
 20
225.264362
 30
0.0
 11
264.338932
 21
225.264362
 31
0.0
  0
LINE
  5
287
100
AcDbEntity
  8
Layer_1
 62
7
100
AcDbLine
 10
264.338932
 20
225.264362
 30
0.0
 11
253.694497
 21
215.264362
 31
0.0
  0
LINE
  5
288
100
AcDbEntity
  8
Layer_1
 62
7
100
AcDbLine
 10
253.694497
 20
215.264362
 30
0.0
 11
253.694497
 21
65.264360
 31
0.0
  0
LINE
  5
289
100
AcDbEntity
  8
Layer_1
 62
7
100
AcDbLine
 10
253.694497
 20
65.264360
 30
0.0
 11
264.903376
 21
55.264360
 31
0.0
  0
LINE
  5
28a
100
AcDbEntity
  8
Layer_1
 62
7
100
AcDbLine
 10
264.903376
 20
55.264360
 30
0.0
 11
282.243392
 21
55.264360
 31
0.0
  0
LINE
  5
28b
100
AcDbEntity
  8
Layer_1
 62
7
100
AcDbLine
 10
282.243392
 20
55.264360
 30
0.0
 11
323.694498
 21
55.264360
 31
0.0
  0
LINE
  5
28c
100
AcDbEntity
  8
Layer_1
 62
7
100
AcDbLine
 10
323.694498
 20
55.264360
 30
0.0
 11
333.694507
 21
45.264360
 31
0.0
  0
LINE
  5
28d
100
AcDbEntity
  8
Layer_1
 62
7
100
AcDbLine
 10
333.694507
 20
45.264360
 30
0.0
 11
333.694507
 21
30.264362
 31
0.0
  0
LINE
  5
28e
100
AcDbEntity
  8
Layer_1
 62
5
100
AcDbLine
 10
67.655801
 20
90.371173
 30
0.0
 11
65.186357
 21
89.026209
 31
0.0
  0
LINE
  5
28f
100
AcDbEntity
  8
Layer_1
 62
5
100
AcDbLine
 10
65.186357
 20
89.026209
 30
0.0
 11
67.677850
 21
87.659195
 31
0.0
  0
LINE
  5
290
100
AcDbEntity
  8
Layer_1
 62
5
100
AcDbLine
 10
67.677850
 20
87.659195
 30
0.0
 11
67.677850
 21
86.986710
 31
0.0
  0
LINE
  5
291
100
AcDbEntity
  8
Layer_1
 62
5
100
AcDbLine
 10
67.677850
 20
86.986710
 30
0.0
 11
64.546947
 21
88.739576
 31
0.0
  0
LINE
  5
292
100
AcDbEntity
  8
Layer_1
 62
5
100
AcDbLine
 10
64.546947
 20
88.739576
 30
0.0
 11
64.546947
 21
89.329375
 31
0.0
  0
LINE
  5
293
100
AcDbEntity
  8
Layer_1
 62
5
100
AcDbLine
 10
64.546947
 20
89.329375
 30
0.0
 11
67.655801
 21
91.071217
 31
0.0
  0
LINE
  5
294
100
AcDbEntity
  8
Layer_1
 62
5
100
AcDbLine
 10
67.655801
 20
91.071217
 30
0.0
 11
67.655801
 21
90.371173
 31
0.0
  0
LINE
  5
295
100
AcDbEntity
  8
Layer_1
 62
5
100
AcDbLine
 10
67.655801
 20
90.371173
 30
0.0
 11
67.655801
 21
90.371173
 31
0.0
  0
LINE
  5
296
100
AcDbEntity
  8
Layer_1
 62
5
100
AcDbLine
 10
65.572207
 20
94.025731
 30
0.0
 11
67.815653
 21
94.025731
 31
0.0
  0
LINE
  5
297
100
AcDbEntity
  8
Layer_1
 62
5
100
AcDbLine
 10
67.815653
 20
94.025731
 30
0.0
 11
67.815653
 21
96.864488
 31
0.0
  0
LINE
  5
298
100
AcDbEntity
  8
Layer_1
 62
5
100
AcDbLine
 10
67.815653
 20
96.864488
 30
0.0
 11
68.752720
 21
96.864488
 31
0.0
  0
LINE
  5
299
100
AcDbEntity
  8
Layer_1
 62
5
100
AcDbLine
 10
68.752720
 20
96.864488
 30
0.0
 11
68.752720
 21
94.025731
 31
0.0
  0
LINE
  5
29a
100
AcDbEntity
  8
Layer_1
 62
5
100
AcDbLine
 10
68.752720
 20
94.025731
 30
0.0
 11
72.655323
 21
94.025731
 31
0.0
  0
LINE
  5
29b
100
AcDbEntity
  8
Layer_1
 62
5
100
AcDbLine
 10
72.655323
 20
94.025731
 30
0.0
 11
72.655323
 21
92.923300
 31
0.0
  0
LINE
  5
29c
100
AcDbEntity
  8
Layer_1
 62
5
100
AcDbLine
 10
72.655323
 20
92.923300
 30
0.0
 11
64.580020
 21
92.923300
 31
0.0
  0
LINE
  5
29d
100
AcDbEntity
  8
Layer_1
 62
5
100
AcDbLine
 10
64.580020
 20
92.923300
 30
0.0
 11
64.580020
 21
97.911798
 31
0.0
  0
LINE
  5
29e
100
AcDbEntity
  8
Layer_1
 62
5
100
AcDbLine
 10
64.580020
 20
97.911798
 30
0.0
 11
65.572207
 21
97.911798
 31
0.0
  0
LINE
  5
29f
100
AcDbEntity
  8
Layer_1
 62
5
100
AcDbLine
 10
65.572207
 20
97.911798
 30
0.0
 11
65.572207
 21
94.025731
 31
0.0
  0
LINE
  5
2a0
100
AcDbEntity
  8
Layer_1
 62
5
100
AcDbLine
 10
65.572207
 20
94.025731
 30
0.0
 11
65.572207
 21
94.025731
 31
0.0
  0
SPLINE
  5
2a1
100
AcDbEntity
  8
Layer_1
 62
5
100
AcDbSpline
 70
8
 71
3
 72
8
 73
4
 74
0
 40
0
 40
0
 40
0
 40
0
 40
1
 40
1
 40
1
 40
1
 10
67.760532
 20
101.979766
 30
0.0
 10
67.602517
 20
101.751932
 30
0.0
 10
67.523509
 20
101.522259
 30
0.0
 10
67.523509
 20
101.290749
 30
0.0
  0
SPLINE
  5
2a2
100
AcDbEntity
  8
Layer_1
 62
5
100
AcDbSpline
 70
8
 71
3
 72
8
 73
4
 74
0
 40
0
 40
0
 40
0
 40
0
 40
1
 40
1
 40
1
 40
1
 10
67.523509
 20
101.290749
 30
0.0
 10
67.523509
 20
100.919596
 30
0.0
 10
67.694386
 20
100.594379
 30
0.0
 10
68.036139
 20
100.315098
 30
0.0
  0
SPLINE
  5
2a3
100
AcDbEntity
  8
Layer_1
 62
5
100
AcDbSpline
 70
8
 71
3
 72
8
 73
4
 74
0
 40
0
 40
0
 40
0
 40
0
 40
1
 40
1
 40
1
 40
1
 10
68.036139
 20
100.315098
 30
0.0
 10
68.377893
 20
100.039489
 30
0.0
 10
68.789466
 20
99.901685
 30
0.0
 10
69.270860
 20
99.901685
 30
0.0
  0
LINE
  5
2a4
100
AcDbEntity
  8
Layer_1
 62
5
100
AcDbLine
 10
69.270860
 20
99.901685
 30
0.0
 11
72.655323
 21
99.901685
 31
0.0
  0
LINE
  5
2a5
100
AcDbEntity
  8
Layer_1
 62
5
100
AcDbLine
 10
72.655323
 20
99.901685
 30
0.0
 11
72.655323
 21
98.854375
 31
0.0
  0
LINE
  5
2a6
100
AcDbEntity
  8
Layer_1
 62
5
100
AcDbLine
 10
72.655323
 20
98.854375
 30
0.0
 11
66.751808
 21
98.854375
 31
0.0
  0
LINE
  5
2a7
100
AcDbEntity
  8
Layer_1
 62
5
100
AcDbLine
 10
66.751808
 20
98.854375
 30
0.0
 11
66.751808
 21
99.901685
 31
0.0
  0
LINE
  5
2a8
100
AcDbEntity
  8
Layer_1
 62
5
100
AcDbLine
 10
66.751808
 20
99.901685
 30
0.0
 11
67.694386
 21
99.901685
 31
0.0
  0
SPLINE
  5
2a9
100
AcDbEntity
  8
Layer_1
 62
5
100
AcDbSpline
 70
8
 71
3
 72
8
 73
4
 74
0
 40
0
 40
0
 40
0
 40
0
 40
1
 40
1
 40
1
 40
1
 10
67.694386
 20
99.901685
 30
0.0
 10
66.992505
 20
100.283861
 30
0.0
 10
66.641565
 20
100.851613
 30
0.0
 10
66.641565
 20
101.604941
 30
0.0
  0
SPLINE
  5
2aa
100
AcDbEntity
  8
Layer_1
 62
5
100
AcDbSpline
 70
8
 71
3
 72
8
 73
4
 74
0
 40
0
 40
0
 40
0
 40
0
 40
1
 40
1
 40
1
 40
1
 10
66.641565
 20
101.604941
 30
0.0
 10
66.641565
 20
101.792354
 30
0.0
 10
66.674638
 20
102.062449
 30
0.0
 10
66.740783
 20
102.415226
 30
0.0
  0
LINE
  5
2ab
100
AcDbEntity
  8
Layer_1
 62
5
100
AcDbLine
 10
66.740783
 20
102.415226
 30
0.0
 11
67.760532
 21
101.979766
 31
0.0
  0
LINE
  5
2ac
100
AcDbEntity
  8
Layer_1
 62
5
100
AcDbLine
 10
67.760532
 20
101.979766
 30
0.0
 11
67.760532
 21
101.979766
 31
0.0
  0
SPLINE
  5
2ad
100
AcDbEntity
  8
Layer_1
 62
5
100
AcDbSpline
 70
8
 71
3
 72
8
 73
4
 74
0
 40
0
 40
0
 40
0
 40
0
 40
1
 40
1
 40
1
 40
1
 10
69.689785
 20
102.773516
 30
0.0
 10
68.778443
 20
102.773516
 30
0.0
 10
68.043489
 20
103.017888
 30
0.0
 10
67.484924
 20
103.506633
 30
0.0
  0
SPLINE
  5
2ae
100
AcDbEntity
  8
Layer_1
 62
5
100
AcDbSpline
 70
8
 71
3
 72
8
 73
4
 74
0
 40
0
 40
0
 40
0
 40
0
 40
1
 40
1
 40
1
 40
1
 10
67.484924
 20
103.506633
 30
0.0
 10
66.922685
 20
103.999053
 30
0.0
 10
66.641565
 20
104.645812
 30
0.0
 10
66.641565
 20
105.446911
 30
0.0
  0
SPLINE
  5
2af
100
AcDbEntity
  8
Layer_1
 62
5
100
AcDbSpline
 70
8
 71
3
 72
8
 73
4
 74
0
 40
0
 40
0
 40
0
 40
0
 40
1
 40
1
 40
1
 40
1
 10
66.641565
 20
105.446911
 30
0.0
 10
66.641565
 20
106.292108
 30
0.0
 10
66.911660
 20
106.948055
 30
0.0
 10
67.451851
 20
107.414751
 30
0.0
  0
SPLINE
  5
2b0
100
AcDbEntity
  8
Layer_1
 62
5
100
AcDbSpline
 70
8
 71
3
 72
8
 73
4
 74
0
 40
0
 40
0
 40
0
 40
0
 40
1
 40
1
 40
1
 40
1
 10
67.451851
 20
107.414751
 30
0.0
 10
67.988367
 20
107.881445
 30
0.0
 10
68.734345
 20
108.114792
 30
0.0
 10
69.689785
 20
108.114792
 30
0.0
  0
SPLINE
  5
2b1
100
AcDbEntity
  8
Layer_1
 62
5
100
AcDbSpline
 70
8
 71
3
 72
8
 73
4
 74
0
 40
0
 40
0
 40
0
 40
0
 40
1
 40
1
 40
1
 40
1
 10
69.689785
 20
108.114792
 30
0.0
 10
70.641550
 20
108.114792
 30
0.0
 10
71.393040
 20
107.875932
 30
0.0
 10
71.944255
 20
107.398213
 30
0.0
  0
SPLINE
  5
2b2
100
AcDbEntity
  8
Layer_1
 62
5
100
AcDbSpline
 70
8
 71
3
 72
8
 73
4
 74
0
 40
0
 40
0
 40
0
 40
0
 40
1
 40
1
 40
1
 40
1
 10
71.944255
 20
107.398213
 30
0.0
 10
72.491797
 20
106.920493
 30
0.0
 10
72.765567
 20
106.270059
 30
0.0
 10
72.765567
 20
105.446911
 30
0.0
  0
SPLINE
  5
2b3
100
AcDbEntity
  8
Layer_1
 62
5
100
AcDbSpline
 70
8
 71
3
 72
8
 73
4
 74
0
 40
0
 40
0
 40
0
 40
0
 40
1
 40
1
 40
1
 40
1
 10
72.765567
 20
105.446911
 30
0.0
 10
72.765567
 20
104.605388
 30
0.0
 10
72.488122
 20
103.949442
 30
0.0
 10
71.933232
 20
103.479072
 30
0.0
  0
SPLINE
  5
2b4
100
AcDbEntity
  8
Layer_1
 62
5
100
AcDbSpline
 70
8
 71
3
 72
8
 73
4
 74
0
 40
0
 40
0
 40
0
 40
0
 40
1
 40
1
 40
1
 40
1
 10
71.933232
 20
103.479072
 30
0.0
 10
71.378342
 20
103.008701
 30
0.0
 10
70.630526
 20
102.773516
 30
0.0
 10
69.689785
 20
102.773516
 30
0.0
  0
LINE
  5
2b5
100
AcDbEntity
  8
Layer_1
 62
5
100
AcDbLine
 10
69.689785
 20
102.773516
 30
0.0
 11
69.689785
 21
102.773516
 31
0.0
  0
SPLINE
  5
2b6
100
AcDbEntity
  8
Layer_1
 62
5
100
AcDbSpline
 70
8
 71
3
 72
8
 73
4
 74
0
 40
0
 40
0
 40
0
 40
0
 40
1
 40
1
 40
1
 40
1
 10
69.689785
 20
103.875947
 30
0.0
 10
71.170716
 20
103.875947
 30
0.0
 10
71.911182
 20
104.399601
 30
0.0
 10
71.911182
 20
105.446911
 30
0.0
  0
SPLINE
  5
2b7
100
AcDbEntity
  8
Layer_1
 62
5
100
AcDbSpline
 70
8
 71
3
 72
8
 73
4
 74
0
 40
0
 40
0
 40
0
 40
0
 40
1
 40
1
 40
1
 40
1
 10
71.911182
 20
105.446911
 30
0.0
 10
71.911182
 20
105.935656
 30
0.0
 10
71.712745
 20
106.317832
 30
0.0
 10
71.315871
 20
106.593439
 30
0.0
  0
SPLINE
  5
2b8
100
AcDbEntity
  8
Layer_1
 62
5
100
AcDbSpline
 70
8
 71
3
 72
8
 73
4
 74
0
 40
0
 40
0
 40
0
 40
0
 40
1
 40
1
 40
1
 40
1
 10
71.315871
 20
106.593439
 30
0.0
 10
70.918995
 20
106.872720
 30
0.0
 10
70.376966
 20
107.012361
 30
0.0
 10
69.689785
 20
107.012361
 30
0.0
  0
SPLINE
  5
2b9
100
AcDbEntity
  8
Layer_1
 62
5
100
AcDbSpline
 70
8
 71
3
 72
8
 73
4
 74
0
 40
0
 40
0
 40
0
 40
0
 40
1
 40
1
 40
1
 40
1
 10
69.689785
 20
107.012361
 30
0.0
 10
68.227227
 20
107.012361
 30
0.0
 10
67.495948
 20
106.490544
 30
0.0
 10
67.495948
 20
105.446911
 30
0.0
  0
SPLINE
  5
2ba
100
AcDbEntity
  8
Layer_1
 62
5
100
AcDbSpline
 70
8
 71
3
 72
8
 73
4
 74
0
 40
0
 40
0
 40
0
 40
0
 40
1
 40
1
 40
1
 40
1
 10
67.495948
 20
105.446911
 30
0.0
 10
67.495948
 20
104.969192
 30
0.0
 10
67.690711
 20
104.587016
 30
0.0
 10
68.080237
 20
104.300383
 30
0.0
  0
SPLINE
  5
2bb
100
AcDbEntity
  8
Layer_1
 62
5
100
AcDbSpline
 70
8
 71
3
 72
8
 73
4
 74
0
 40
0
 40
0
 40
0
 40
0
 40
1
 40
1
 40
1
 40
1
 10
68.080237
 20
104.300383
 30
0.0
 10
68.469763
 20
104.017426
 30
0.0
 10
69.006279
 20
103.875947
 30
0.0
 10
69.689785
 20
103.875947
 30
0.0
  0
LINE
  5
2bc
100
AcDbEntity
  8
Layer_1
 62
5
100
AcDbLine
 10
69.689785
 20
103.875947
 30
0.0
 11
69.689785
 21
103.875947
 31
0.0
  0
LINE
  5
2bd
100
AcDbEntity
  8
Layer_1
 62
5
100
AcDbLine
 10
72.655323
 20
112.855244
 30
0.0
 11
69.221251
 21
112.855244
 31
0.0
  0
SPLINE
  5
2be
100
AcDbEntity
  8
Layer_1
 62
5
100
AcDbSpline
 70
8
 71
3
 72
8
 73
4
 74
0
 40
0
 40
0
 40
0
 40
0
 40
1
 40
1
 40
1
 40
1
 10
69.221251
 20
112.855244
 30
0.0
 10
68.592867
 20
112.855244
 30
0.0
 10
68.153732
 20
112.759700
 30
0.0
 10
67.903848
 20
112.568611
 30
0.0
  0
SPLINE
  5
2bf
100
AcDbEntity
  8
Layer_1
 62
5
100
AcDbSpline
 70
8
 71
3
 72
8
 73
4
 74
0
 40
0
 40
0
 40
0
 40
0
 40
1
 40
1
 40
1
 40
1
 10
67.903848
 20
112.568611
 30
0.0
 10
67.650289
 20
112.381199
 30
0.0
 10
67.523509
 20
112.065169
 30
0.0
 10
67.523509
 20
111.620522
 30
0.0
  0
SPLINE
  5
2c0
100
AcDbEntity
  8
Layer_1
 62
5
100
AcDbSpline
 70
8
 71
3
 72
8
 73
4
 74
0
 40
0
 40
0
 40
0
 40
0
 40
1
 40
1
 40
1
 40
1
 10
67.523509
 20
111.620522
 30
0.0
 10
67.523509
 20
111.381663
 30
0.0
 10
67.595167
 20
111.131778
 30
0.0
 10
67.738483
 20
110.870869
 30
0.0
  0
SPLINE
  5
2c1
100
AcDbEntity
  8
Layer_1
 62
5
100
AcDbSpline
 70
8
 71
3
 72
8
 73
4
 74
0
 40
0
 40
0
 40
0
 40
0
 40
1
 40
1
 40
1
 40
1
 10
67.738483
 20
110.870869
 30
0.0
 10
67.881799
 20
110.609961
 30
0.0
 10
68.058188
 20
110.409685
 30
0.0
 10
68.267650
 20
110.270044
 30
0.0
  0
LINE
  5
2c2
100
AcDbEntity
  8
Layer_1
 62
5
100
AcDbLine
 10
68.267650
 20
110.270044
 30
0.0
 11
72.655323
 21
110.270044
 31
0.0
  0
LINE
  5
2c3
100
AcDbEntity
  8
Layer_1
 62
5
100
AcDbLine
 10
72.655323
 20
110.270044
 30
0.0
 11
72.655323
 21
109.222737
 31
0.0
  0
LINE
  5
2c4
100
AcDbEntity
  8
Layer_1
 62
5
100
AcDbLine
 10
72.655323
 20
109.222737
 30
0.0
 11
66.751808
 21
109.222737
 31
0.0
  0
LINE
  5
2c5
100
AcDbEntity
  8
Layer_1
 62
5
100
AcDbLine
 10
66.751808
 20
109.222737
 30
0.0
 11
66.751808
 21
109.939316
 31
0.0
  0
LINE
  5
2c6
100
AcDbEntity
  8
Layer_1
 62
5
100
AcDbLine
 10
66.751808
 20
109.939316
 30
0.0
 11
67.512485
 21
110.270044
 31
0.0
  0
SPLINE
  5
2c7
100
AcDbEntity
  8
Layer_1
 62
5
100
AcDbSpline
 70
8
 71
3
 72
8
 73
4
 74
0
 40
0
 40
0
 40
0
 40
0
 40
1
 40
1
 40
1
 40
1
 10
67.512485
 20
110.270044
 30
0.0
 10
66.931872
 20
110.615472
 30
0.0
 10
66.641565
 20
111.179550
 30
0.0
 10
66.641565
 20
111.962276
 30
0.0
  0
SPLINE
  5
2c8
100
AcDbEntity
  8
Layer_1
 62
5
100
AcDbSpline
 70
8
 71
3
 72
8
 73
4
 74
0
 40
0
 40
0
 40
0
 40
0
 40
1
 40
1
 40
1
 40
1
 10
66.641565
 20
111.962276
 30
0.0
 10
66.641565
 20
113.255795
 30
0.0
 10
67.427965
 20
113.902554
 30
0.0
 10
69.000765
 20
113.902554
 30
0.0
  0
LINE
  5
2c9
100
AcDbEntity
  8
Layer_1
 62
5
100
AcDbLine
 10
69.000765
 20
113.902554
 30
0.0
 11
72.655323
 21
113.902554
 31
0.0
  0
LINE
  5
2ca
100
AcDbEntity
  8
Layer_1
 62
5
100
AcDbLine
 10
72.655323
 20
113.902554
 30
0.0
 11
72.655323
 21
112.855244
 31
0.0
  0
LINE
  5
2cb
100
AcDbEntity
  8
Layer_1
 62
5
100
AcDbLine
 10
72.655323
 20
112.855244
 30
0.0
 11
72.655323
 21
112.855244
 31
0.0
  0
LINE
  5
2cc
100
AcDbEntity
  8
Layer_1
 62
5
100
AcDbLine
 10
67.578631
 20
115.771173
 30
0.0
 11
67.578631
 21
115.087667
 31
0.0
  0
LINE
  5
2cd
100
AcDbEntity
  8
Layer_1
 62
5
100
AcDbLine
 10
67.578631
 20
115.087667
 30
0.0
 11
66.751808
 21
115.087667
 31
0.0
  0
LINE
  5
2ce
100
AcDbEntity
  8
Layer_1
 62
5
100
AcDbLine
 10
66.751808
 20
115.087667
 30
0.0
 11
66.751808
 21
115.771173
 31
0.0
  0
LINE
  5
2cf
100
AcDbEntity
  8
Layer_1
 62
5
100
AcDbLine
 10
66.751808
 20
115.771173
 30
0.0
 11
65.517086
 21
115.771173
 31
0.0
  0
LINE
  5
2d0
100
AcDbEntity
  8
Layer_1
 62
5
100
AcDbLine
 10
65.517086
 20
115.771173
 30
0.0
 11
65.114698
 21
116.818483
 31
0.0
  0
LINE
  5
2d1
100
AcDbEntity
  8
Layer_1
 62
5
100
AcDbLine
 10
65.114698
 20
116.818483
 30
0.0
 11
66.751808
 21
116.818483
 31
0.0
  0
LINE
  5
2d2
100
AcDbEntity
  8
Layer_1
 62
5
100
AcDbLine
 10
66.751808
 20
116.818483
 30
0.0
 11
66.751808
 21
118.439056
 31
0.0
  0
LINE
  5
2d3
100
AcDbEntity
  8
Layer_1
 62
5
100
AcDbLine
 10
66.751808
 20
118.439056
 30
0.0
 11
67.578631
 21
118.439056
 31
0.0
  0
LINE
  5
2d4
100
AcDbEntity
  8
Layer_1
 62
5
100
AcDbLine
 10
67.578631
 20
118.439056
 30
0.0
 11
67.578631
 21
116.818483
 31
0.0
  0
LINE
  5
2d5
100
AcDbEntity
  8
Layer_1
 62
5
100
AcDbLine
 10
67.578631
 20
116.818483
 30
0.0
 11
70.511097
 21
116.818483
 31
0.0
  0
SPLINE
  5
2d6
100
AcDbEntity
  8
Layer_1
 62
5
100
AcDbSpline
 70
8
 71
3
 72
8
 73
4
 74
0
 40
0
 40
0
 40
0
 40
0
 40
1
 40
1
 40
1
 40
1
 10
70.511097
 20
116.818483
 30
0.0
 10
71.007189
 20
116.818483
 30
0.0
 10
71.359967
 20
116.901164
 30
0.0
 10
71.569430
 20
117.066528
 30
0.0
  0
SPLINE
  5
2d7
100
AcDbEntity
  8
Layer_1
 62
5
100
AcDbSpline
 70
8
 71
3
 72
8
 73
4
 74
0
 40
0
 40
0
 40
0
 40
0
 40
1
 40
1
 40
1
 40
1
 10
71.569430
 20
117.066528
 30
0.0
 10
71.778892
 20
117.235568
 30
0.0
 10
71.883623
 20
117.505664
 30
0.0
 10
71.883623
 20
117.876816
 30
0.0
  0
SPLINE
  5
2d8
100
AcDbEntity
  8
Layer_1
 62
5
100
AcDbSpline
 70
8
 71
3
 72
8
 73
4
 74
0
 40
0
 40
0
 40
0
 40
0
 40
1
 40
1
 40
1
 40
1
 10
71.883623
 20
117.876816
 30
0.0
 10
71.883623
 20
118.145074
 30
0.0
 10
71.815639
 20
118.422519
 30
0.0
 10
71.679672
 20
118.709151
 30
0.0
  0
LINE
  5
2d9
100
AcDbEntity
  8
Layer_1
 62
5
100
AcDbLine
 10
71.679672
 20
118.709151
 30
0.0
 11
72.600202
 21
118.863490
 31
0.0
  0
SPLINE
  5
2da
100
AcDbEntity
  8
Layer_1
 62
5
100
AcDbSpline
 70
8
 71
3
 72
8
 73
4
 74
0
 40
0
 40
0
 40
0
 40
0
 40
1
 40
1
 40
1
 40
1
 10
72.600202
 20
118.863490
 30
0.0
 10
72.710445
 20
118.429867
 30
0.0
 10
72.765567
 20
117.953985
 30
0.0
 10
72.765567
 20
117.435844
 30
0.0
  0
SPLINE
  5
2db
100
AcDbEntity
  8
Layer_1
 62
5
100
AcDbSpline
 70
8
 71
3
 72
8
 73
4
 74
0
 40
0
 40
0
 40
0
 40
0
 40
1
 40
1
 40
1
 40
1
 10
72.765567
 20
117.435844
 30
0.0
 10
72.765567
 20
116.969148
 30
0.0
 10
72.592853
 20
116.574110
 30
0.0
 10
72.247424
 20
116.250731
 30
0.0
  0
SPLINE
  5
2dc
100
AcDbEntity
  8
Layer_1
 62
5
100
AcDbSpline
 70
8
 71
3
 72
8
 73
4
 74
0
 40
0
 40
0
 40
0
 40
0
 40
1
 40
1
 40
1
 40
1
 10
72.247424
 20
116.250731
 30
0.0
 10
71.898321
 20
115.931026
 30
0.0
 10
71.459186
 20
115.771173
 30
0.0
 10
70.930019
 20
115.771173
 30
0.0
  0
LINE
  5
2dd
100
AcDbEntity
  8
Layer_1
 62
5
100
AcDbLine
 10
70.930019
 20
115.771173
 30
0.0
 11
67.578631
 21
115.771173
 31
0.0
  0
LINE
  5
2de
100
AcDbEntity
  8
Layer_1
 62
5
100
AcDbLine
 10
67.578631
 20
115.771173
 30
0.0
 11
67.578631
 21
115.771173
 31
0.0
  0
LINE
  5
2df
100
AcDbEntity
  8
Layer_1
 62
5
100
AcDbLine
 10
90.987581
 20
131.128808
 30
0.0
 11
101.247075
 21
128.365841
 31
0.0
  0
LINE
  5
2e0
100
AcDbEntity
  8
Layer_1
 62
5
100
AcDbLine
 10
101.247075
 20
128.365841
 30
0.0
 11
101.247075
 21
125.437509
 31
0.0
  0
LINE
  5
2e1
100
AcDbEntity
  8
Layer_1
 62
5
100
AcDbLine
 10
101.247075
 20
125.437509
 30
0.0
 11
94.563590
 21
123.597829
 31
0.0
  0
LINE
  5
2e2
100
AcDbEntity
  8
Layer_1
 62
5
100
AcDbLine
 10
94.563590
 20
123.597829
 30
0.0
 11
101.247075
 21
121.806378
 31
0.0
  0
LINE
  5
2e3
100
AcDbEntity
  8
Layer_1
 62
5
100
AcDbLine
 10
101.247075
 20
121.806378
 30
0.0
 11
101.247075
 21
118.878049
 31
0.0
  0
LINE
  5
2e4
100
AcDbEntity
  8
Layer_1
 62
5
100
AcDbLine
 10
101.247075
 20
118.878049
 30
0.0
 11
90.987581
 21
116.115082
 31
0.0
  0
LINE
  5
2e5
100
AcDbEntity
  8
Layer_1
 62
5
100
AcDbLine
 10
90.987581
 20
116.115082
 30
0.0
 11
90.987581
 21
118.878049
 31
0.0
  0
LINE
  5
2e6
100
AcDbEntity
  8
Layer_1
 62
5
100
AcDbLine
 10
90.987581
 20
118.878049
 30
0.0
 11
98.050025
 21
120.455903
 31
0.0
  0
LINE
  5
2e7
100
AcDbEntity
  8
Layer_1
 62
5
100
AcDbLine
 10
98.050025
 20
120.455903
 30
0.0
 11
90.987581
 21
122.343814
 31
0.0
  0
LINE
  5
2e8
100
AcDbEntity
  8
Layer_1
 62
5
100
AcDbLine
 10
90.987581
 20
122.343814
 30
0.0
 11
90.987581
 21
124.982758
 31
0.0
  0
LINE
  5
2e9
100
AcDbEntity
  8
Layer_1
 62
5
100
AcDbLine
 10
90.987581
 20
124.982758
 30
0.0
 11
98.050025
 21
126.781098
 31
0.0
  0
LINE
  5
2ea
100
AcDbEntity
  8
Layer_1
 62
5
100
AcDbLine
 10
98.050025
 20
126.781098
 30
0.0
 11
90.987581
 21
128.434743
 31
0.0
  0
LINE
  5
2eb
100
AcDbEntity
  8
Layer_1
 62
5
100
AcDbLine
 10
90.987581
 20
128.434743
 30
0.0
 11
90.987581
 21
131.128808
 31
0.0
  0
LINE
  5
2ec
100
AcDbEntity
  8
Layer_1
 62
5
100
AcDbLine
 10
90.987581
 20
131.128808
 30
0.0
 11
90.987581
 21
131.128808
 31
0.0
  0
LINE
  5
2ed
100
AcDbEntity
  8
Layer_1
 62
5
100
AcDbLine
 10
101.247075
 20
137.579050
 30
0.0
 11
101.247075
 21
135.098582
 31
0.0
  0
LINE
  5
2ee
100
AcDbEntity
  8
Layer_1
 62
5
100
AcDbLine
 10
101.247075
 20
135.098582
 30
0.0
 11
93.509389
 21
135.098582
 31
0.0
  0
LINE
  5
2ef
100
AcDbEntity
  8
Layer_1
 62
5
100
AcDbLine
 10
93.509389
 20
135.098582
 30
0.0
 11
93.509389
 21
137.579050
 31
0.0
  0
LINE
  5
2f0
100
AcDbEntity
  8
Layer_1
 62
5
100
AcDbLine
 10
93.509389
 20
137.579050
 30
0.0
 11
101.247075
 21
137.579050
 31
0.0
  0
LINE
  5
2f1
100
AcDbEntity
  8
Layer_1
 62
5
100
AcDbLine
 10
101.247075
 20
137.579050
 30
0.0
 11
101.247075
 21
137.579050
 31
0.0
  0
LINE
  5
2f2
100
AcDbEntity
  8
Layer_1
 62
5
100
AcDbLine
 10
92.406958
 20
137.647952
 30
0.0
 11
92.406958
 21
135.029680
 31
0.0
  0
LINE
  5
2f3
100
AcDbEntity
  8
Layer_1
 62
5
100
AcDbLine
 10
92.406958
 20
135.029680
 30
0.0
 11
90.525939
 21
135.029680
 31
0.0
  0
LINE
  5
2f4
100
AcDbEntity
  8
Layer_1
 62
5
100
AcDbLine
 10
90.525939
 20
135.029680
 30
0.0
 11
90.525939
 21
137.647952
 31
0.0
  0
LINE
  5
2f5
100
AcDbEntity
  8
Layer_1
 62
5
100
AcDbLine
 10
90.525939
 20
137.647952
 30
0.0
 11
92.406958
 21
137.647952
 31
0.0
  0
LINE
  5
2f6
100
AcDbEntity
  8
Layer_1
 62
5
100
AcDbLine
 10
92.406958
 20
137.647952
 30
0.0
 11
92.406958
 21
137.647952
 31
0.0
  0
LINE
  5
2f7
100
AcDbEntity
  8
Layer_1
 62
5
100
AcDbLine
 10
101.247075
 20
144.738986
 30
0.0
 11
101.247075
 21
142.258518
 31
0.0
  0
LINE
  5
2f8
100
AcDbEntity
  8
Layer_1
 62
5
100
AcDbLine
 10
101.247075
 20
142.258518
 30
0.0
 11
90.525939
 21
142.258518
 31
0.0
  0
LINE
  5
2f9
100
AcDbEntity
  8
Layer_1
 62
5
100
AcDbLine
 10
90.525939
 20
142.258518
 30
0.0
 11
90.525939
 21
144.738986
 31
0.0
  0
LINE
  5
2fa
100
AcDbEntity
  8
Layer_1
 62
5
100
AcDbLine
 10
90.525939
 20
144.738986
 30
0.0
 11
101.247075
 21
144.738986
 31
0.0
  0
LINE
  5
2fb
100
AcDbEntity
  8
Layer_1
 62
5
100
AcDbLine
 10
101.247075
 20
144.738986
 30
0.0
 11
101.247075
 21
144.738986
 31
0.0
  0
SPLINE
  5
2fc
100
AcDbEntity
  8
Layer_1
 62
5
100
AcDbSpline
 70
8
 71
3
 72
8
 73
4
 74
0
 40
0
 40
0
 40
0
 40
0
 40
1
 40
1
 40
1
 40
1
 10
98.794166
 20
156.143278
 30
0.0
 10
99.593429
 20
156.143278
 30
0.0
 10
100.238810
 20
155.784988
 30
0.0
 10
100.730310
 20
155.068409
 30
0.0
  0
SPLINE
  5
2fd
100
AcDbEntity
  8
Layer_1
 62
5
100
AcDbSpline
 70
8
 71
3
 72
8
 73
4
 74
0
 40
0
 40
0
 40
0
 40
0
 40
1
 40
1
 40
1
 40
1
 10
100.730310
 20
155.068409
 30
0.0
 10
101.217216
 20
154.351828
 30
0.0
 10
101.460670
 20
153.371124
 30
0.0
 10
101.460670
 20
152.126296
 30
0.0
  0
SPLINE
  5
2fe
100
AcDbEntity
  8
Layer_1
 62
5
100
AcDbSpline
 70
8
 71
3
 72
8
 73
4
 74
0
 40
0
 40
0
 40
0
 40
0
 40
1
 40
1
 40
1
 40
1
 10
101.460670
 20
152.126296
 30
0.0
 10
101.460670
 20
151.437277
 30
0.0
 10
101.396362
 20
150.812567
 30
0.0
 10
101.267745
 20
150.252166
 30
0.0
  0
SPLINE
  5
2ff
100
AcDbEntity
  8
Layer_1
 62
5
100
AcDbSpline
 70
8
 71
3
 72
8
 73
4
 74
0
 40
0
 40
0
 40
0
 40
0
 40
1
 40
1
 40
1
 40
1
 10
101.267745
 20
150.252166
 30
0.0
 10
101.139129
 20
149.691763
 30
0.0
 10
100.996732
 20
149.241603
 30
0.0
 10
100.840554
 20
148.901687
 30
0.0
  0
LINE
  5
300
100
AcDbEntity
  8
Layer_1
 62
5
100
AcDbLine
 10
100.840554
 20
148.901687
 30
0.0
 11
98.801055
 21
148.901687
 31
0.0
  0
LINE
  5
301
100
AcDbEntity
  8
Layer_1
 62
5
100
AcDbLine
 10
98.801055
 20
148.901687
 30
0.0
 11
98.801055
 21
149.129062
 31
0.0
  0
SPLINE
  5
302
100
AcDbEntity
  8
Layer_1
 62
5
100
AcDbSpline
 70
8
 71
3
 72
8
 73
4
 74
0
 40
0
 40
0
 40
0
 40
0
 40
1
 40
1
 40
1
 40
1
 10
98.801055
 20
149.129062
 30
0.0
 10
98.888332
 20
149.253086
 30
0.0
 10
98.984795
 20
149.395484
 30
0.0
 10
99.090446
 20
149.556257
 30
0.0
  0
SPLINE
  5
303
100
AcDbEntity
  8
Layer_1
 62
5
100
AcDbSpline
 70
8
 71
3
 72
8
 73
4
 74
0
 40
0
 40
0
 40
0
 40
0
 40
1
 40
1
 40
1
 40
1
 10
99.090446
 20
149.556257
 30
0.0
 10
99.191501
 20
149.721620
 30
0.0
 10
99.301743
 20
149.953590
 30
0.0
 10
99.421174
 20
150.252166
 30
0.0
  0
SPLINE
  5
304
100
AcDbEntity
  8
Layer_1
 62
5
100
AcDbSpline
 70
8
 71
3
 72
8
 73
4
 74
0
 40
0
 40
0
 40
0
 40
0
 40
1
 40
1
 40
1
 40
1
 10
99.421174
 20
150.252166
 30
0.0
 10
99.526823
 20
150.509398
 30
0.0
 10
99.618692
 20
150.801082
 30
0.0
 10
99.696781
 20
151.127218
 30
0.0
  0
SPLINE
  5
305
100
AcDbEntity
  8
Layer_1
 62
5
100
AcDbSpline
 70
8
 71
3
 72
8
 73
4
 74
0
 40
0
 40
0
 40
0
 40
0
 40
1
 40
1
 40
1
 40
1
 10
99.696781
 20
151.127218
 30
0.0
 10
99.770277
 20
151.453354
 30
0.0
 10
99.807025
 20
151.802458
 30
0.0
 10
99.807025
 20
152.174528
 30
0.0
  0
SPLINE
  5
306
100
AcDbEntity
  8
Layer_1
 62
5
100
AcDbSpline
 70
8
 71
3
 72
8
 73
4
 74
0
 40
0
 40
0
 40
0
 40
0
 40
1
 40
1
 40
1
 40
1
 10
99.807025
 20
152.174528
 30
0.0
 10
99.807025
 20
152.661435
 30
0.0
 10
99.754200
 20
153.022022
 30
0.0
 10
99.648549
 20
153.256289
 30
0.0
  0
SPLINE
  5
307
100
AcDbEntity
  8
Layer_1
 62
5
100
AcDbSpline
 70
8
 71
3
 72
8
 73
4
 74
0
 40
0
 40
0
 40
0
 40
0
 40
1
 40
1
 40
1
 40
1
 10
99.648549
 20
153.256289
 30
0.0
 10
99.538307
 20
153.490554
 30
0.0
 10
99.377537
 20
153.607686
 30
0.0
 10
99.166237
 20
153.607686
 30
0.0
  0
SPLINE
  5
308
100
AcDbEntity
  8
Layer_1
 62
5
100
AcDbSpline
 70
8
 71
3
 72
8
 73
4
 74
0
 40
0
 40
0
 40
0
 40
0
 40
1
 40
1
 40
1
 40
1
 10
99.166237
 20
153.607686
 30
0.0
 10
98.977904
 20
153.607686
 30
0.0
 10
98.842397
 20
153.538785
 30
0.0
 10
98.759716
 20
153.400981
 30
0.0
  0
SPLINE
  5
309
100
AcDbEntity
  8
Layer_1
 62
5
100
AcDbSpline
 70
8
 71
3
 72
8
 73
4
 74
0
 40
0
 40
0
 40
0
 40
0
 40
1
 40
1
 40
1
 40
1
 10
98.759716
 20
153.400981
 30
0.0
 10
98.672439
 20
153.263178
 30
0.0
 10
98.589757
 20
153.001351
 30
0.0
 10
98.511668
 20
152.615500
 30
0.0
  0
SPLINE
  5
30a
100
AcDbEntity
  8
Layer_1
 62
5
100
AcDbSpline
 70
8
 71
3
 72
8
 73
4
 74
0
 40
0
 40
0
 40
0
 40
0
 40
1
 40
1
 40
1
 40
1
 10
98.511668
 20
152.615500
 30
0.0
 10
98.470328
 20
152.431762
 30
0.0
 10
98.426691
 20
152.181419
 30
0.0
 10
98.380756
 20
151.864470
 30
0.0
  0
SPLINE
  5
30b
100
AcDbEntity
  8
Layer_1
 62
5
100
AcDbSpline
 70
8
 71
3
 72
8
 73
4
 74
0
 40
0
 40
0
 40
0
 40
0
 40
1
 40
1
 40
1
 40
1
 10
98.380756
 20
151.864470
 30
0.0
 10
98.330227
 20
151.552114
 30
0.0
 10
98.270512
 20
151.267319
 30
0.0
 10
98.201610
 20
151.010085
 30
0.0
  0
SPLINE
  5
30c
100
AcDbEntity
  8
Layer_1
 62
5
100
AcDbSpline
 70
8
 71
3
 72
8
 73
4
 74
0
 40
0
 40
0
 40
0
 40
0
 40
1
 40
1
 40
1
 40
1
 10
98.201610
 20
151.010085
 30
0.0
 10
98.017872
 20
150.307286
 30
0.0
 10
97.733078
 20
149.785928
 30
0.0
 10
97.347227
 20
149.446012
 30
0.0
  0
SPLINE
  5
30d
100
AcDbEntity
  8
Layer_1
 62
5
100
AcDbSpline
 70
8
 71
3
 72
8
 73
4
 74
0
 40
0
 40
0
 40
0
 40
0
 40
1
 40
1
 40
1
 40
1
 10
97.347227
 20
149.446012
 30
0.0
 10
96.956782
 20
149.106096
 30
0.0
 10
96.472172
 20
148.936138
 30
0.0
 10
95.893396
 20
148.936138
 30
0.0
  0
SPLINE
  5
30e
100
AcDbEntity
  8
Layer_1
 62
5
100
AcDbSpline
 70
8
 71
3
 72
8
 73
4
 74
0
 40
0
 40
0
 40
0
 40
0
 40
1
 40
1
 40
1
 40
1
 10
95.893396
 20
148.936138
 30
0.0
 10
95.149255
 20
148.936138
 30
0.0
 10
94.531435
 20
149.287538
 30
0.0
 10
94.039936
 20
149.990337
 30
0.0
  0
SPLINE
  5
30f
100
AcDbEntity
  8
Layer_1
 62
5
100
AcDbSpline
 70
8
 71
3
 72
8
 73
4
 74
0
 40
0
 40
0
 40
0
 40
0
 40
1
 40
1
 40
1
 40
1
 10
94.039936
 20
149.990337
 30
0.0
 10
93.543842
 20
150.697731
 30
0.0
 10
93.295795
 20
151.662358
 30
0.0
 10
93.295795
 20
152.884218
 30
0.0
  0
SPLINE
  5
310
100
AcDbEntity
  8
Layer_1
 62
5
100
AcDbSpline
 70
8
 71
3
 72
8
 73
4
 74
0
 40
0
 40
0
 40
0
 40
0
 40
1
 40
1
 40
1
 40
1
 10
93.295795
 20
152.884218
 30
0.0
 10
93.295795
 20
153.462994
 30
0.0
 10
93.355509
 20
154.016506
 30
0.0
 10
93.474938
 20
154.544754
 30
0.0
  0
SPLINE
  5
311
100
AcDbEntity
  8
Layer_1
 62
5
100
AcDbSpline
 70
8
 71
3
 72
8
 73
4
 74
0
 40
0
 40
0
 40
0
 40
0
 40
1
 40
1
 40
1
 40
1
 10
93.474938
 20
154.544754
 30
0.0
 10
93.589776
 20
155.077596
 30
0.0
 10
93.713800
 20
155.493303
 30
0.0
 10
93.847008
 20
155.791877
 30
0.0
  0
LINE
  5
312
100
AcDbEntity
  8
Layer_1
 62
5
100
AcDbLine
 10
93.847008
 20
155.791877
 30
0.0
 11
95.803824
 21
155.791877
 31
0.0
  0
LINE
  5
313
100
AcDbEntity
  8
Layer_1
 62
5
100
AcDbLine
 10
95.803824
 20
155.791877
 30
0.0
 11
95.803824
 21
155.578283
 31
0.0
  0
SPLINE
  5
314
100
AcDbEntity
  8
Layer_1
 62
5
100
AcDbSpline
 70
8
 71
3
 72
8
 73
4
 74
0
 40
0
 40
0
 40
0
 40
0
 40
1
 40
1
 40
1
 40
1
 10
95.803824
 20
155.578283
 30
0.0
 10
95.551183
 20
155.210805
 30
0.0
 10
95.346774
 20
154.790503
 30
0.0
 10
95.190598
 20
154.317376
 30
0.0
  0
SPLINE
  5
315
100
AcDbEntity
  8
Layer_1
 62
5
100
AcDbSpline
 70
8
 71
3
 72
8
 73
4
 74
0
 40
0
 40
0
 40
0
 40
0
 40
1
 40
1
 40
1
 40
1
 10
95.190598
 20
154.317376
 30
0.0
 10
95.029825
 20
153.848844
 30
0.0
 10
94.949439
 20
153.373421
 30
0.0
 10
94.949439
 20
152.891107
 30
0.0
  0
SPLINE
  5
316
100
AcDbEntity
  8
Layer_1
 62
5
100
AcDbSpline
 70
8
 71
3
 72
8
 73
4
 74
0
 40
0
 40
0
 40
0
 40
0
 40
1
 40
1
 40
1
 40
1
 10
94.949439
 20
152.891107
 30
0.0
 10
94.949439
 20
152.491477
 30
0.0
 10
95.004561
 20
152.153857
 30
0.0
 10
95.114804
 20
151.878248
 30
0.0
  0
SPLINE
  5
317
100
AcDbEntity
  8
Layer_1
 62
5
100
AcDbSpline
 70
8
 71
3
 72
8
 73
4
 74
0
 40
0
 40
0
 40
0
 40
0
 40
1
 40
1
 40
1
 40
1
 10
95.114804
 20
151.878248
 30
0.0
 10
95.225048
 20
151.607236
 30
0.0
 10
95.381226
 20
151.471730
 30
0.0
 10
95.583338
 20
151.471730
 30
0.0
  0
SPLINE
  5
318
100
AcDbEntity
  8
Layer_1
 62
5
100
AcDbSpline
 70
8
 71
3
 72
8
 73
4
 74
0
 40
0
 40
0
 40
0
 40
0
 40
1
 40
1
 40
1
 40
1
 10
95.583338
 20
151.471730
 30
0.0
 10
95.767076
 20
151.471730
 30
0.0
 10
95.907177
 20
151.533741
 30
0.0
 10
96.003641
 20
151.657762
 30
0.0
  0
SPLINE
  5
319
100
AcDbEntity
  8
Layer_1
 62
5
100
AcDbSpline
 70
8
 71
3
 72
8
 73
4
 74
0
 40
0
 40
0
 40
0
 40
0
 40
1
 40
1
 40
1
 40
1
 10
96.003641
 20
151.657762
 30
0.0
 10
96.100102
 20
151.781786
 30
0.0
 10
96.196565
 20
152.073471
 30
0.0
 10
96.293028
 20
152.532818
 30
0.0
  0
SPLINE
  5
31a
100
AcDbEntity
  8
Layer_1
 62
5
100
AcDbSpline
 70
8
 71
3
 72
8
 73
4
 74
0
 40
0
 40
0
 40
0
 40
0
 40
1
 40
1
 40
1
 40
1
 10
96.293028
 20
152.532818
 30
0.0
 10
96.343556
 20
152.785457
 30
0.0
 10
96.394084
 20
153.056472
 30
0.0
 10
96.444613
 20
153.345860
 30
0.0
  0
SPLINE
  5
31b
100
AcDbEntity
  8
Layer_1
 62
5
100
AcDbSpline
 70
8
 71
3
 72
8
 73
4
 74
0
 40
0
 40
0
 40
0
 40
0
 40
1
 40
1
 40
1
 40
1
 10
96.444613
 20
153.345860
 30
0.0
 10
96.490547
 20
153.639842
 30
0.0
 10
96.550262
 20
153.933823
 30
0.0
 10
96.623756
 20
154.227805
 30
0.0
  0
SPLINE
  5
31c
100
AcDbEntity
  8
Layer_1
 62
5
100
AcDbSpline
 70
8
 71
3
 72
8
 73
4
 74
0
 40
0
 40
0
 40
0
 40
0
 40
1
 40
1
 40
1
 40
1
 10
96.623756
 20
154.227805
 30
0.0
 10
96.793714
 20
154.880077
 30
0.0
 10
97.062432
 20
155.362390
 30
0.0
 10
97.429910
 20
155.674744
 30
0.0
  0
SPLINE
  5
31d
100
AcDbEntity
  8
Layer_1
 62
5
100
AcDbSpline
 70
8
 71
3
 72
8
 73
4
 74
0
 40
0
 40
0
 40
0
 40
0
 40
1
 40
1
 40
1
 40
1
 10
97.429910
 20
155.674744
 30
0.0
 10
97.792793
 20
155.987100
 30
0.0
 10
98.247545
 20
156.143278
 30
0.0
 10
98.794166
 20
156.143278
 30
0.0
  0
LINE
  5
31e
100
AcDbEntity
  8
Layer_1
 62
5
100
AcDbLine
 10
98.794166
 20
156.143278
 30
0.0
 11
98.794166
 21
156.143278
 31
0.0
  0
SPLINE
  5
31f
100
AcDbEntity
  8
Layer_1
 62
5
100
AcDbSpline
 70
8
 71
3
 72
8
 73
4
 74
0
 40
0
 40
0
 40
0
 40
0
 40
1
 40
1
 40
1
 40
1
 10
97.381678
 20
168.043663
 30
0.0
 10
98.654066
 20
168.043663
 30
0.0
 10
99.657736
 20
167.671594
 30
0.0
 10
100.392690
 20
166.927455
 30
0.0
  0
SPLINE
  5
320
100
AcDbEntity
  8
Layer_1
 62
5
100
AcDbSpline
 70
8
 71
3
 72
8
 73
4
 74
0
 40
0
 40
0
 40
0
 40
0
 40
1
 40
1
 40
1
 40
1
 10
100.392690
 20
166.927455
 30
0.0
 10
101.123051
 20
166.187907
 30
0.0
 10
101.488232
 20
165.147488
 30
0.0
 10
101.488232
 20
163.806198
 30
0.0
  0
SPLINE
  5
321
100
AcDbEntity
  8
Layer_1
 62
5
100
AcDbSpline
 70
8
 71
3
 72
8
 73
4
 74
0
 40
0
 40
0
 40
0
 40
0
 40
1
 40
1
 40
1
 40
1
 10
101.488232
 20
163.806198
 30
0.0
 10
101.488232
 20
162.464907
 30
0.0
 10
101.123051
 20
161.422191
 30
0.0
 10
100.392690
 20
160.678050
 30
0.0
  0
SPLINE
  5
322
100
AcDbEntity
  8
Layer_1
 62
5
100
AcDbSpline
 70
8
 71
3
 72
8
 73
4
 74
0
 40
0
 40
0
 40
0
 40
0
 40
1
 40
1
 40
1
 40
1
 10
100.392690
 20
160.678050
 30
0.0
 10
99.657736
 20
159.938504
 30
0.0
 10
98.654066
 20
159.568730
 30
0.0
 10
97.381678
 20
159.568730
 30
0.0
  0
SPLINE
  5
323
100
AcDbEntity
  8
Layer_1
 62
5
100
AcDbSpline
 70
8
 71
3
 72
8
 73
4
 74
0
 40
0
 40
0
 40
0
 40
0
 40
1
 40
1
 40
1
 40
1
 10
97.381678
 20
159.568730
 30
0.0
 10
96.100101
 20
159.568730
 30
0.0
 10
95.094133
 20
159.940801
 30
0.0
 10
94.363774
 20
160.684942
 30
0.0
  0
SPLINE
  5
324
100
AcDbEntity
  8
Layer_1
 62
5
100
AcDbSpline
 70
8
 71
3
 72
8
 73
4
 74
0
 40
0
 40
0
 40
0
 40
0
 40
1
 40
1
 40
1
 40
1
 10
94.363774
 20
160.684942
 30
0.0
 10
93.633413
 20
161.433676
 30
0.0
 10
93.268233
 20
162.474094
 30
0.0
 10
93.268233
 20
163.806198
 30
0.0
  0
SPLINE
  5
325
100
AcDbEntity
  8
Layer_1
 62
5
100
AcDbSpline
 70
8
 71
3
 72
8
 73
4
 74
0
 40
0
 40
0
 40
0
 40
0
 40
1
 40
1
 40
1
 40
1
 10
93.268233
 20
163.806198
 30
0.0
 10
93.268233
 20
165.156675
 30
0.0
 10
93.635710
 20
166.199390
 30
0.0
 10
94.370663
 20
166.934344
 30
0.0
  0
SPLINE
  5
326
100
AcDbEntity
  8
Layer_1
 62
5
100
AcDbSpline
 70
8
 71
3
 72
8
 73
4
 74
0
 40
0
 40
0
 40
0
 40
0
 40
1
 40
1
 40
1
 40
1
 10
94.370663
 20
166.934344
 30
0.0
 10
95.105617
 20
167.673890
 30
0.0
 10
96.109289
 20
168.043663
 30
0.0
 10
97.381678
 20
168.043663
 30
0.0
  0
LINE
  5
327
100
AcDbEntity
  8
Layer_1
 62
5
100
AcDbLine
 10
97.381678
 20
168.043663
 30
0.0
 11
97.381678
 21
168.043663
 31
0.0
  0
SPLINE
  5
328
100
AcDbEntity
  8
Layer_1
 62
5
100
AcDbSpline
 70
8
 71
3
 72
8
 73
4
 74
0
 40
0
 40
0
 40
0
 40
0
 40
1
 40
1
 40
1
 40
1
 10
99.262700
 20
164.991309
 30
0.0
 10
99.065181
 20
165.152081
 30
0.0
 10
98.828617
 20
165.271512
 30
0.0
 10
98.553010
 20
165.349601
 30
0.0
  0
SPLINE
  5
329
100
AcDbEntity
  8
Layer_1
 62
5
100
AcDbSpline
 70
8
 71
3
 72
8
 73
4
 74
0
 40
0
 40
0
 40
0
 40
0
 40
1
 40
1
 40
1
 40
1
 10
98.553010
 20
165.349601
 30
0.0
 10
98.272809
 20
165.432283
 30
0.0
 10
97.886958
 20
165.473624
 30
0.0
 10
97.395459
 20
165.473624
 30
0.0
  0
SPLINE
  5
32a
100
AcDbEntity
  8
Layer_1
 62
5
100
AcDbSpline
 70
8
 71
3
 72
8
 73
4
 74
0
 40
0
 40
0
 40
0
 40
0
 40
1
 40
1
 40
1
 40
1
 10
97.395459
 20
165.473624
 30
0.0
 10
96.940705
 20
165.473624
 30
0.0
 10
96.559447
 20
165.432283
 30
0.0
 10
96.251686
 20
165.349601
 30
0.0
  0
SPLINE
  5
32b
100
AcDbEntity
  8
Layer_1
 62
5
100
AcDbSpline
 70
8
 71
3
 72
8
 73
4
 74
0
 40
0
 40
0
 40
0
 40
0
 40
1
 40
1
 40
1
 40
1
 10
96.251686
 20
165.349601
 30
0.0
 10
95.943924
 20
165.266918
 30
0.0
 10
95.698175
 20
165.152080
 30
0.0
 10
95.514437
 20
165.005090
 30
0.0
  0
SPLINE
  5
32c
100
AcDbEntity
  8
Layer_1
 62
5
100
AcDbSpline
 70
8
 71
3
 72
8
 73
4
 74
0
 40
0
 40
0
 40
0
 40
0
 40
1
 40
1
 40
1
 40
1
 10
95.514437
 20
165.005090
 30
0.0
 10
95.326104
 20
164.858099
 30
0.0
 10
95.192893
 20
164.681251
 30
0.0
 10
95.114804
 20
164.474546
 30
0.0
  0
SPLINE
  5
32d
100
AcDbEntity
  8
Layer_1
 62
5
100
AcDbSpline
 70
8
 71
3
 72
8
 73
4
 74
0
 40
0
 40
0
 40
0
 40
0
 40
1
 40
1
 40
1
 40
1
 10
95.114804
 20
164.474546
 30
0.0
 10
95.036715
 20
164.267841
 30
0.0
 10
94.997671
 20
164.045058
 30
0.0
 10
94.997671
 20
163.806198
 30
0.0
  0
SPLINE
  5
32e
100
AcDbEntity
  8
Layer_1
 62
5
100
AcDbSpline
 70
8
 71
3
 72
8
 73
4
 74
0
 40
0
 40
0
 40
0
 40
0
 40
1
 40
1
 40
1
 40
1
 10
94.997671
 20
163.806198
 30
0.0
 10
94.997671
 20
163.567337
 30
0.0
 10
95.029825
 20
163.353741
 30
0.0
 10
95.094134
 20
163.165410
 30
0.0
  0
SPLINE
  5
32f
100
AcDbEntity
  8
Layer_1
 62
5
100
AcDbSpline
 70
8
 71
3
 72
8
 73
4
 74
0
 40
0
 40
0
 40
0
 40
0
 40
1
 40
1
 40
1
 40
1
 10
95.094134
 20
163.165410
 30
0.0
 10
95.158443
 20
162.981672
 30
0.0
 10
95.287060
 20
162.804824
 30
0.0
 10
95.479986
 20
162.634866
 30
0.0
  0
SPLINE
  5
330
100
AcDbEntity
  8
Layer_1
 62
5
100
AcDbSpline
 70
8
 71
3
 72
8
 73
4
 74
0
 40
0
 40
0
 40
0
 40
0
 40
1
 40
1
 40
1
 40
1
 10
95.479986
 20
162.634866
 30
0.0
 10
95.659129
 20
162.483281
 30
0.0
 10
95.904879
 20
162.361554
 30
0.0
 10
96.217235
 20
162.269685
 30
0.0
  0
SPLINE
  5
331
100
AcDbEntity
  8
Layer_1
 62
5
100
AcDbSpline
 70
8
 71
3
 72
8
 73
4
 74
0
 40
0
 40
0
 40
0
 40
0
 40
1
 40
1
 40
1
 40
1
 10
96.217235
 20
162.269685
 30
0.0
 10
96.529591
 20
162.182408
 30
0.0
 10
96.922332
 20
162.138770
 30
0.0
 10
97.395459
 20
162.138770
 30
0.0
  0
SPLINE
  5
332
100
AcDbEntity
  8
Layer_1
 62
5
100
AcDbSpline
 70
8
 71
3
 72
8
 73
4
 74
0
 40
0
 40
0
 40
0
 40
0
 40
1
 40
1
 40
1
 40
1
 10
97.395459
 20
162.138770
 30
0.0
 10
97.818057
 20
162.138770
 30
0.0
 10
98.185534
 20
162.177815
 30
0.0
 10
98.497890
 20
162.255904
 30
0.0
  0
SPLINE
  5
333
100
AcDbEntity
  8
Layer_1
 62
5
100
AcDbSpline
 70
8
 71
3
 72
8
 73
4
 74
0
 40
0
 40
0
 40
0
 40
0
 40
1
 40
1
 40
1
 40
1
 10
98.497890
 20
162.255904
 30
0.0
 10
98.805651
 20
162.333993
 30
0.0
 10
99.053697
 20
162.448830
 30
0.0
 10
99.242028
 20
162.600415
 30
0.0
  0
SPLINE
  5
334
100
AcDbEntity
  8
Layer_1
 62
5
100
AcDbSpline
 70
8
 71
3
 72
8
 73
4
 74
0
 40
0
 40
0
 40
0
 40
0
 40
1
 40
1
 40
1
 40
1
 10
99.242028
 20
162.600415
 30
0.0
 10
99.421173
 20
162.747406
 30
0.0
 10
99.552087
 20
162.921957
 30
0.0
 10
99.634771
 20
163.124067
 30
0.0
  0
SPLINE
  5
335
100
AcDbEntity
  8
Layer_1
 62
5
100
AcDbSpline
 70
8
 71
3
 72
8
 73
4
 74
0
 40
0
 40
0
 40
0
 40
0
 40
1
 40
1
 40
1
 40
1
 10
99.634771
 20
163.124067
 30
0.0
 10
99.717453
 20
163.330774
 30
0.0
 10
99.758794
 20
163.565041
 30
0.0
 10
99.758794
 20
163.826868
 30
0.0
  0
SPLINE
  5
336
100
AcDbEntity
  8
Layer_1
 62
5
100
AcDbSpline
 70
8
 71
3
 72
8
 73
4
 74
0
 40
0
 40
0
 40
0
 40
0
 40
1
 40
1
 40
1
 40
1
 10
99.758794
 20
163.826868
 30
0.0
 10
99.758794
 20
164.051948
 30
0.0
 10
99.722045
 20
164.265544
 30
0.0
 10
99.648549
 20
164.467657
 30
0.0
  0
SPLINE
  5
337
100
AcDbEntity
  8
Layer_1
 62
5
100
AcDbSpline
 70
8
 71
3
 72
8
 73
4
 74
0
 40
0
 40
0
 40
0
 40
0
 40
1
 40
1
 40
1
 40
1
 10
99.648549
 20
164.467657
 30
0.0
 10
99.570462
 20
164.674362
 30
0.0
 10
99.441846
 20
164.848913
 30
0.0
 10
99.262700
 20
164.991309
 30
0.0
  0
LINE
  5
338
100
AcDbEntity
  8
Layer_1
 62
5
100
AcDbLine
 10
99.262700
 20
164.991309
 30
0.0
 11
99.262700
 21
164.991309
 31
0.0
  0
LINE
  5
339
100
AcDbEntity
  8
Layer_1
 62
5
100
AcDbLine
 10
101.247075
 20
179.944049
 30
0.0
 11
101.247075
 21
177.449800
 31
0.0
  0
LINE
  5
33a
100
AcDbEntity
  8
Layer_1
 62
5
100
AcDbLine
 10
101.247075
 20
177.449800
 30
0.0
 11
97.409237
 21
177.449800
 31
0.0
  0
SPLINE
  5
33b
100
AcDbEntity
  8
Layer_1
 62
5
100
AcDbSpline
 70
8
 71
3
 72
8
 73
4
 74
0
 40
0
 40
0
 40
0
 40
0
 40
1
 40
1
 40
1
 40
1
 10
97.409237
 20
177.449800
 30
0.0
 10
97.096883
 20
177.449800
 30
0.0
 10
96.786825
 20
177.433723
 30
0.0
 10
96.479064
 20
177.401568
 30
0.0
  0
SPLINE
  5
33c
100
AcDbEntity
  8
Layer_1
 62
5
100
AcDbSpline
 70
8
 71
3
 72
8
 73
4
 74
0
 40
0
 40
0
 40
0
 40
0
 40
1
 40
1
 40
1
 40
1
 10
96.479064
 20
177.401568
 30
0.0
 10
96.166708
 20
177.369414
 30
0.0
 10
95.937034
 20
177.314293
 30
0.0
 10
95.790044
 20
177.236206
 30
0.0
  0
SPLINE
  5
33d
100
AcDbEntity
  8
Layer_1
 62
5
100
AcDbSpline
 70
8
 71
3
 72
8
 73
4
 74
0
 40
0
 40
0
 40
0
 40
0
 40
1
 40
1
 40
1
 40
1
 10
95.790044
 20
177.236206
 30
0.0
 10
95.620086
 20
177.144335
 30
0.0
 10
95.496062
 20
177.008828
 30
0.0
 10
95.417973
 20
176.829684
 30
0.0
  0
SPLINE
  5
33e
100
AcDbEntity
  8
Layer_1
 62
5
100
AcDbSpline
 70
8
 71
3
 72
8
 73
4
 74
0
 40
0
 40
0
 40
0
 40
0
 40
1
 40
1
 40
1
 40
1
 10
95.417973
 20
176.829684
 30
0.0
 10
95.339884
 20
176.655132
 30
0.0
 10
95.300840
 20
176.409381
 30
0.0
 10
95.300840
 20
176.092432
 30
0.0
  0
SPLINE
  5
33f
100
AcDbEntity
  8
Layer_1
 62
5
100
AcDbSpline
 70
8
 71
3
 72
8
 73
4
 74
0
 40
0
 40
0
 40
0
 40
0
 40
1
 40
1
 40
1
 40
1
 10
95.300840
 20
176.092432
 30
0.0
 10
95.300840
 20
175.867353
 30
0.0
 10
95.337588
 20
175.637680
 30
0.0
 10
95.411084
 20
175.403415
 30
0.0
  0
SPLINE
  5
340
100
AcDbEntity
  8
Layer_1
 62
5
100
AcDbSpline
 70
8
 71
3
 72
8
 73
4
 74
0
 40
0
 40
0
 40
0
 40
0
 40
1
 40
1
 40
1
 40
1
 10
95.411084
 20
175.403415
 30
0.0
 10
95.484578
 20
175.173741
 30
0.0
 10
95.601711
 20
174.923396
 30
0.0
 10
95.762482
 20
174.652382
 30
0.0
  0
LINE
  5
341
100
AcDbEntity
  8
Layer_1
 62
5
100
AcDbLine
 10
95.762482
 20
174.652382
 30
0.0
 11
101.247075
 21
174.652382
 31
0.0
  0
LINE
  5
342
100
AcDbEntity
  8
Layer_1
 62
5
100
AcDbLine
 10
101.247075
 20
174.652382
 30
0.0
 11
101.247075
 21
172.171914
 31
0.0
  0
LINE
  5
343
100
AcDbEntity
  8
Layer_1
 62
5
100
AcDbLine
 10
101.247075
 20
172.171914
 30
0.0
 11
93.509389
 21
172.171914
 31
0.0
  0
LINE
  5
344
100
AcDbEntity
  8
Layer_1
 62
5
100
AcDbLine
 10
93.509389
 20
172.171914
 30
0.0
 11
93.509389
 21
174.652382
 31
0.0
  0
LINE
  5
345
100
AcDbEntity
  8
Layer_1
 62
5
100
AcDbLine
 10
93.509389
 20
174.652382
 30
0.0
 11
94.363774
 21
174.652382
 31
0.0
  0
SPLINE
  5
346
100
AcDbEntity
  8
Layer_1
 62
5
100
AcDbSpline
 70
8
 71
3
 72
8
 73
4
 74
0
 40
0
 40
0
 40
0
 40
0
 40
1
 40
1
 40
1
 40
1
 10
94.363774
 20
174.652382
 30
0.0
 10
94.019264
 20
175.093354
 30
0.0
 10
93.755139
 20
175.515953
 30
0.0
 10
93.571401
 20
175.920178
 30
0.0
  0
SPLINE
  5
347
100
AcDbEntity
  8
Layer_1
 62
5
100
AcDbSpline
 70
8
 71
3
 72
8
 73
4
 74
0
 40
0
 40
0
 40
0
 40
0
 40
1
 40
1
 40
1
 40
1
 10
93.571401
 20
175.920178
 30
0.0
 10
93.387664
 20
176.328996
 30
0.0
 10
93.295795
 20
176.781452
 30
0.0
 10
93.295795
 20
177.277546
 30
0.0
  0
SPLINE
  5
348
100
AcDbEntity
  8
Layer_1
 62
5
100
AcDbSpline
 70
8
 71
3
 72
8
 73
4
 74
0
 40
0
 40
0
 40
0
 40
0
 40
1
 40
1
 40
1
 40
1
 10
93.295795
 20
177.277546
 30
0.0
 10
93.295795
 20
178.113556
 30
0.0
 10
93.539248
 20
178.765827
 30
0.0
 10
94.026155
 20
179.234359
 30
0.0
  0
SPLINE
  5
349
100
AcDbEntity
  8
Layer_1
 62
5
100
AcDbSpline
 70
8
 71
3
 72
8
 73
4
 74
0
 40
0
 40
0
 40
0
 40
0
 40
1
 40
1
 40
1
 40
1
 10
94.026155
 20
179.234359
 30
0.0
 10
94.513061
 20
179.707486
 30
0.0
 10
95.241125
 20
179.944049
 30
0.0
 10
96.210346
 20
179.944049
 30
0.0
  0
LINE
  5
34a
100
AcDbEntity
  8
Layer_1
 62
5
100
AcDbLine
 10
96.210346
 20
179.944049
 30
0.0
 11
101.247075
 21
179.944049
 31
0.0
  0
LINE
  5
34b
100
AcDbEntity
  8
Layer_1
 62
5
100
AcDbLine
 10
101.247075
 20
179.944049
 30
0.0
 11
101.247075
 21
179.944049
 31
0.0
  0
SPLINE
  5
34c
100
AcDbEntity
  8
Layer_1
 62
5
100
AcDbSpline
 70
8
 71
3
 72
8
 73
4
 74
0
 40
0
 40
0
 40
0
 40
0
 40
1
 40
1
 40
1
 40
1
 10
92.178203
 20
102.597297
 30
0.0
 10
93.416507
 20
101.358993
 30
0.0
 10
95.126929
 20
100.592805
 30
0.0
 10
97.016770
 20
100.592805
 30
0.0
  0
SPLINE
  5
34d
100
AcDbEntity
  8
Layer_1
 62
5
100
AcDbSpline
 70
8
 71
3
 72
8
 73
4
 74
0
 40
0
 40
0
 40
0
 40
0
 40
1
 40
1
 40
1
 40
1
 10
97.016770
 20
100.592805
 30
0.0
 10
100.796163
 20
100.592805
 30
0.0
 10
103.859827
 20
103.656734
 30
0.0
 10
103.859827
 20
107.435867
 30
0.0
  0
SPLINE
  5
34e
100
AcDbEntity
  8
Layer_1
 62
5
100
AcDbSpline
 70
8
 71
3
 72
8
 73
4
 74
0
 40
0
 40
0
 40
0
 40
0
 40
1
 40
1
 40
1
 40
1
 10
103.859827
 20
107.435867
 30
0.0
 10
103.859827
 20
111.214997
 30
0.0
 10
100.796163
 20
114.278929
 30
0.0
 10
97.016770
 20
114.278929
 30
0.0
  0
SPLINE
  5
34f
100
AcDbEntity
  8
Layer_1
 62
5
100
AcDbSpline
 70
8
 71
3
 72
8
 73
4
 74
0
 40
0
 40
0
 40
0
 40
0
 40
1
 40
1
 40
1
 40
1
 10
97.016770
 20
114.278929
 30
0.0
 10
95.127202
 20
114.278929
 30
0.0
 10
93.416507
 20
113.513014
 30
0.0
 10
92.178338
 20
112.274711
 30
0.0
  0
LINE
  5
350
100
AcDbEntity
  8
Layer_1
 62
5
100
AcDbLine
 10
87.339359
 20
107.435867
 30
0.0
 11
92.178203
 21
102.597297
 31
0.0
  0
LINE
  5
351
100
AcDbEntity
  8
Layer_1
 62
5
100
AcDbLine
 10
92.178203
 20
102.597297
 30
0.0
 11
87.339359
 21
107.435867
 31
0.0
  0
LINE
  5
352
100
AcDbEntity
  8
Layer_1
 62
5
100
AcDbLine
 10
87.339359
 20
107.435867
 30
0.0
 11
87.339359
 21
107.435867
 31
0.0
  0
LINE
  5
353
100
AcDbEntity
  8
Layer_1
 62
5
100
AcDbLine
 10
92.178338
 20
112.274711
 30
0.0
 11
87.339359
 21
107.435867
 31
0.0
  0
LINE
  5
354
100
AcDbEntity
  8
Layer_1
 62
5
100
AcDbLine
 10
87.339359
 20
107.435867
 30
0.0
 11
87.339359
 21
107.435867
 31
0.0
  0
LINE
  5
355
100
AcDbEntity
  8
Layer_1
 62
5
100
AcDbLine
 10
87.339359
 20
107.435867
 30
0.0
 11
92.178338
 21
112.274711
 31
0.0
  0
LINE
  5
356
100
AcDbEntity
  8
Layer_1
 62
5
100
AcDbLine
 10
92.178338
 20
112.274711
 30
0.0
 11
92.178338
 21
112.274711
 31
0.0
  0
LINE
  5
357
100
AcDbEntity
  8
Layer_1
 62
5
100
AcDbLine
 10
83.153589
 20
98.212867
 30
0.0
 11
83.153589
 21
181.712867
 31
0.0
  0
SPLINE
  5
358
100
AcDbEntity
  8
Layer_1
 62
5
100
AcDbSpline
 70
8
 71
3
 72
8
 73
4
 74
0
 40
0
 40
0
 40
0
 40
0
 40
1
 40
1
 40
1
 40
1
 10
83.153589
 20
181.712867
 30
0.0
 10
83.153589
 20
182.820866
 30
0.0
 10
84.045589
 20
183.712868
 30
0.0
 10
85.153587
 20
183.712868
 30
0.0
  0
LINE
  5
359
100
AcDbEntity
  8
Layer_1
 62
5
100
AcDbLine
 10
85.153587
 20
183.712868
 30
0.0
 11
106.153591
 21
183.712868
 31
0.0
  0
SPLINE
  5
35a
100
AcDbEntity
  8
Layer_1
 62
5
100
AcDbSpline
 70
8
 71
3
 72
8
 73
4
 74
0
 40
0
 40
0
 40
0
 40
0
 40
1
 40
1
 40
1
 40
1
 10
106.153591
 20
183.712868
 30
0.0
 10
107.261589
 20
183.712868
 30
0.0
 10
108.153589
 20
182.820866
 30
0.0
 10
108.153589
 20
181.712867
 30
0.0
  0
LINE
  5
35b
100
AcDbEntity
  8
Layer_1
 62
5
100
AcDbLine
 10
108.153589
 20
181.712867
 30
0.0
 11
108.153589
 21
98.212867
 31
0.0
  0
SPLINE
  5
35c
100
AcDbEntity
  8
Layer_1
 62
5
100
AcDbSpline
 70
8
 71
3
 72
8
 73
4
 74
0
 40
0
 40
0
 40
0
 40
0
 40
1
 40
1
 40
1
 40
1
 10
108.153589
 20
98.212867
 30
0.0
 10
108.153589
 20
97.104868
 30
0.0
 10
107.261589
 20
96.212868
 30
0.0
 10
106.153591
 20
96.212868
 30
0.0
  0
LINE
  5
35d
100
AcDbEntity
  8
Layer_1
 62
5
100
AcDbLine
 10
106.153591
 20
96.212868
 30
0.0
 11
85.153587
 21
96.212868
 31
0.0
  0
SPLINE
  5
35e
100
AcDbEntity
  8
Layer_1
 62
5
100
AcDbSpline
 70
8
 71
3
 72
8
 73
4
 74
0
 40
0
 40
0
 40
0
 40
0
 40
1
 40
1
 40
1
 40
1
 10
85.153587
 20
96.212868
 30
0.0
 10
84.045589
 20
96.212868
 30
0.0
 10
83.153589
 20
97.104868
 30
0.0
 10
83.153589
 20
98.212867
 30
0.0
  0
LINE
  5
35f
100
AcDbEntity
  8
Layer_1
 62
5
100
AcDbLine
 10
83.153589
 20
98.212867
 30
0.0
 11
83.153589
 21
98.212867
 31
0.0
  0
SPLINE
  5
360
100
AcDbEntity
  8
Layer_1
 62
7
100
AcDbSpline
 70
8
 71
3
 72
8
 73
4
 74
0
 40
0
 40
0
 40
0
 40
0
 40
1
 40
1
 40
1
 40
1
 10
271.998824
 20
216.848224
 30
0.0
 10
270.926616
 20
216.848227
 30
0.0
 10
270.057421
 20
217.717423
 30
0.0
 10
270.057417
 20
218.789631
 30
0.0
  0
SPLINE
  5
361
100
AcDbEntity
  8
Layer_1
 62
7
100
AcDbSpline
 70
8
 71
3
 72
8
 73
4
 74
0
 40
0
 40
0
 40
0
 40
0
 40
1
 40
1
 40
1
 40
1
 10
270.057417
 20
218.789631
 30
0.0
 10
270.057411
 20
219.304528
 30
0.0
 10
270.261949
 20
219.798339
 30
0.0
 10
270.626034
 20
220.162429
 30
0.0
  0
SPLINE
  5
362
100
AcDbEntity
  8
Layer_1
 62
7
100
AcDbSpline
 70
8
 71
3
 72
8
 73
4
 74
0
 40
0
 40
0
 40
0
 40
0
 40
1
 40
1
 40
1
 40
1
 10
270.626034
 20
220.162429
 30
0.0
 10
270.990119
 20
220.526519
 30
0.0
 10
271.483926
 20
220.731064
 30
0.0
 10
271.998824
 20
220.731065
 30
0.0
  0
SPLINE
  5
363
100
AcDbEntity
  8
Layer_1
 62
7
100
AcDbSpline
 70
8
 71
3
 72
8
 73
4
 74
0
 40
0
 40
0
 40
0
 40
0
 40
1
 40
1
 40
1
 40
1
 10
271.998824
 20
220.731065
 30
0.0
 10
272.513726
 20
220.731071
 30
0.0
 10
273.007541
 20
220.526530
 30
0.0
 10
273.371632
 20
220.162439
 30
0.0
  0
SPLINE
  5
364
100
AcDbEntity
  8
Layer_1
 62
7
100
AcDbSpline
 70
8
 71
3
 72
8
 73
4
 74
0
 40
0
 40
0
 40
0
 40
0
 40
1
 40
1
 40
1
 40
1
 10
273.371632
 20
220.162439
 30
0.0
 10
273.735723
 20
219.798348
 30
0.0
 10
273.940264
 20
219.304533
 30
0.0
 10
273.940259
 20
218.789631
 30
0.0
  0
SPLINE
  5
365
100
AcDbEntity
  8
Layer_1
 62
7
100
AcDbSpline
 70
8
 71
3
 72
8
 73
4
 74
0
 40
0
 40
0
 40
0
 40
0
 40
1
 40
1
 40
1
 40
1
 10
273.940259
 20
218.789631
 30
0.0
 10
273.940257
 20
218.274733
 30
0.0
 10
273.735712
 20
217.780925
 30
0.0
 10
273.371622
 20
217.416841
 30
0.0
  0
SPLINE
  5
366
100
AcDbEntity
  8
Layer_1
 62
7
100
AcDbSpline
 70
8
 71
3
 72
8
 73
4
 74
0
 40
0
 40
0
 40
0
 40
0
 40
1
 40
1
 40
1
 40
1
 10
273.371622
 20
217.416841
 30
0.0
 10
273.007532
 20
217.052756
 30
0.0
 10
272.513721
 20
216.848218
 30
0.0
 10
271.998824
 20
216.848224
 30
0.0
  0
LINE
  5
367
100
AcDbEntity
  8
Layer_1
 62
7
100
AcDbLine
 10
271.998824
 20
216.848224
 30
0.0
 11
271.998824
 21
216.848224
 31
0.0
  0
SPLINE
  5
368
100
AcDbEntity
  8
Layer_1
 62
7
100
AcDbSpline
 70
8
 71
3
 72
8
 73
4
 74
0
 40
0
 40
0
 40
0
 40
0
 40
1
 40
1
 40
1
 40
1
 10
271.998824
 20
8.848188
 30
0.0
 10
271.483926
 20
8.848190
 30
0.0
 10
270.990119
 20
9.052735
 30
0.0
 10
270.626034
 20
9.416825
 30
0.0
  0
SPLINE
  5
369
100
AcDbEntity
  8
Layer_1
 62
7
100
AcDbSpline
 70
8
 71
3
 72
8
 73
4
 74
0
 40
0
 40
0
 40
0
 40
0
 40
1
 40
1
 40
1
 40
1
 10
270.626034
 20
9.416825
 30
0.0
 10
270.261949
 20
9.780915
 30
0.0
 10
270.057411
 20
10.274726
 30
0.0
 10
270.057417
 20
10.789623
 30
0.0
  0
SPLINE
  5
36a
100
AcDbEntity
  8
Layer_1
 62
7
100
AcDbSpline
 70
8
 71
3
 72
8
 73
4
 74
0
 40
0
 40
0
 40
0
 40
0
 40
1
 40
1
 40
1
 40
1
 10
270.057417
 20
10.789623
 30
0.0
 10
270.057421
 20
11.861831
 30
0.0
 10
270.926616
 20
12.731027
 30
0.0
 10
271.998824
 20
12.731030
 30
0.0
  0
SPLINE
  5
36b
100
AcDbEntity
  8
Layer_1
 62
7
100
AcDbSpline
 70
8
 71
3
 72
8
 73
4
 74
0
 40
0
 40
0
 40
0
 40
0
 40
1
 40
1
 40
1
 40
1
 10
271.998824
 20
12.731030
 30
0.0
 10
272.513721
 20
12.731036
 30
0.0
 10
273.007532
 20
12.526498
 30
0.0
 10
273.371622
 20
12.162413
 30
0.0
  0
SPLINE
  5
36c
100
AcDbEntity
  8
Layer_1
 62
7
100
AcDbSpline
 70
8
 71
3
 72
8
 73
4
 74
0
 40
0
 40
0
 40
0
 40
0
 40
1
 40
1
 40
1
 40
1
 10
273.371622
 20
12.162413
 30
0.0
 10
273.735712
 20
11.798328
 30
0.0
 10
273.940257
 20
11.304521
 30
0.0
 10
273.940259
 20
10.789623
 30
0.0
  0
SPLINE
  5
36d
100
AcDbEntity
  8
Layer_1
 62
7
100
AcDbSpline
 70
8
 71
3
 72
8
 73
4
 74
0
 40
0
 40
0
 40
0
 40
0
 40
1
 40
1
 40
1
 40
1
 10
273.940259
 20
10.789623
 30
0.0
 10
273.940264
 20
10.274721
 30
0.0
 10
273.735723
 20
9.780906
 30
0.0
 10
273.371632
 20
9.416815
 30
0.0
  0
SPLINE
  5
36e
100
AcDbEntity
  8
Layer_1
 62
7
100
AcDbSpline
 70
8
 71
3
 72
8
 73
4
 74
0
 40
0
 40
0
 40
0
 40
0
 40
1
 40
1
 40
1
 40
1
 10
273.371632
 20
9.416815
 30
0.0
 10
273.007541
 20
9.052724
 30
0.0
 10
272.513726
 20
8.848183
 30
0.0
 10
271.998824
 20
8.848188
 30
0.0
  0
LINE
  5
36f
100
AcDbEntity
  8
Layer_1
 62
7
100
AcDbLine
 10
271.998824
 20
8.848188
 30
0.0
 11
271.998824
 21
8.848188
 31
0.0
  0
SPLINE
  5
370
100
AcDbEntity
  8
Layer_1
 62
7
100
AcDbSpline
 70
8
 71
3
 72
8
 73
4
 74
0
 40
0
 40
0
 40
0
 40
0
 40
1
 40
1
 40
1
 40
1
 10
585.998831
 20
216.848224
 30
0.0
 10
585.483933
 20
216.848218
 30
0.0
 10
584.990123
 20
217.052756
 30
0.0
 10
584.626033
 20
217.416841
 30
0.0
  0
SPLINE
  5
371
100
AcDbEntity
  8
Layer_1
 62
7
100
AcDbSpline
 70
8
 71
3
 72
8
 73
4
 74
0
 40
0
 40
0
 40
0
 40
0
 40
1
 40
1
 40
1
 40
1
 10
584.626033
 20
217.416841
 30
0.0
 10
584.261943
 20
217.780925
 30
0.0
 10
584.057398
 20
218.274733
 30
0.0
 10
584.057396
 20
218.789631
 30
0.0
  0
SPLINE
  5
372
100
AcDbEntity
  8
Layer_1
 62
7
100
AcDbSpline
 70
8
 71
3
 72
8
 73
4
 74
0
 40
0
 40
0
 40
0
 40
0
 40
1
 40
1
 40
1
 40
1
 10
584.057396
 20
218.789631
 30
0.0
 10
584.057390
 20
219.304533
 30
0.0
 10
584.261932
 20
219.798348
 30
0.0
 10
584.626023
 20
220.162439
 30
0.0
  0
SPLINE
  5
373
100
AcDbEntity
  8
Layer_1
 62
7
100
AcDbSpline
 70
8
 71
3
 72
8
 73
4
 74
0
 40
0
 40
0
 40
0
 40
0
 40
1
 40
1
 40
1
 40
1
 10
584.626023
 20
220.162439
 30
0.0
 10
584.990114
 20
220.526530
 30
0.0
 10
585.483929
 20
220.731071
 30
0.0
 10
585.998831
 20
220.731065
 30
0.0
  0
SPLINE
  5
374
100
AcDbEntity
  8
Layer_1
 62
7
100
AcDbSpline
 70
8
 71
3
 72
8
 73
4
 74
0
 40
0
 40
0
 40
0
 40
0
 40
1
 40
1
 40
1
 40
1
 10
585.998831
 20
220.731065
 30
0.0
 10
586.513728
 20
220.731064
 30
0.0
 10
587.007536
 20
220.526519
 30
0.0
 10
587.371621
 20
220.162429
 30
0.0
  0
SPLINE
  5
375
100
AcDbEntity
  8
Layer_1
 62
7
100
AcDbSpline
 70
8
 71
3
 72
8
 73
4
 74
0
 40
0
 40
0
 40
0
 40
0
 40
1
 40
1
 40
1
 40
1
 10
587.371621
 20
220.162429
 30
0.0
 10
587.735705
 20
219.798339
 30
0.0
 10
587.940243
 20
219.304528
 30
0.0
 10
587.940237
 20
218.789631
 30
0.0
  0
SPLINE
  5
376
100
AcDbEntity
  8
Layer_1
 62
7
100
AcDbSpline
 70
8
 71
3
 72
8
 73
4
 74
0
 40
0
 40
0
 40
0
 40
0
 40
1
 40
1
 40
1
 40
1
 10
587.940237
 20
218.789631
 30
0.0
 10
587.940234
 20
217.717423
 30
0.0
 10
587.071038
 20
216.848227
 30
0.0
 10
585.998831
 20
216.848224
 30
0.0
  0
LINE
  5
377
100
AcDbEntity
  8
Layer_1
 62
7
100
AcDbLine
 10
585.998831
 20
216.848224
 30
0.0
 11
585.998831
 21
216.848224
 31
0.0
  0
SPLINE
  5
378
100
AcDbEntity
  8
Layer_1
 62
7
100
AcDbSpline
 70
8
 71
3
 72
8
 73
4
 74
0
 40
0
 40
0
 40
0
 40
0
 40
1
 40
1
 40
1
 40
1
 10
585.998831
 20
8.848188
 30
0.0
 10
585.483929
 20
8.848183
 30
0.0
 10
584.990114
 20
9.052724
 30
0.0
 10
584.626023
 20
9.416815
 30
0.0
  0
SPLINE
  5
379
100
AcDbEntity
  8
Layer_1
 62
7
100
AcDbSpline
 70
8
 71
3
 72
8
 73
4
 74
0
 40
0
 40
0
 40
0
 40
0
 40
1
 40
1
 40
1
 40
1
 10
584.626023
 20
9.416815
 30
0.0
 10
584.261932
 20
9.780906
 30
0.0
 10
584.057390
 20
10.274721
 30
0.0
 10
584.057396
 20
10.789623
 30
0.0
  0
SPLINE
  5
37a
100
AcDbEntity
  8
Layer_1
 62
7
100
AcDbSpline
 70
8
 71
3
 72
8
 73
4
 74
0
 40
0
 40
0
 40
0
 40
0
 40
1
 40
1
 40
1
 40
1
 10
584.057396
 20
10.789623
 30
0.0
 10
584.057398
 20
11.304521
 30
0.0
 10
584.261943
 20
11.798328
 30
0.0
 10
584.626033
 20
12.162413
 30
0.0
  0
SPLINE
  5
37b
100
AcDbEntity
  8
Layer_1
 62
7
100
AcDbSpline
 70
8
 71
3
 72
8
 73
4
 74
0
 40
0
 40
0
 40
0
 40
0
 40
1
 40
1
 40
1
 40
1
 10
584.626033
 20
12.162413
 30
0.0
 10
584.990123
 20
12.526498
 30
0.0
 10
585.483933
 20
12.731036
 30
0.0
 10
585.998831
 20
12.731030
 30
0.0
  0
SPLINE
  5
37c
100
AcDbEntity
  8
Layer_1
 62
7
100
AcDbSpline
 70
8
 71
3
 72
8
 73
4
 74
0
 40
0
 40
0
 40
0
 40
0
 40
1
 40
1
 40
1
 40
1
 10
585.998831
 20
12.731030
 30
0.0
 10
587.071038
 20
12.731027
 30
0.0
 10
587.940234
 20
11.861831
 30
0.0
 10
587.940237
 20
10.789623
 30
0.0
  0
SPLINE
  5
37d
100
AcDbEntity
  8
Layer_1
 62
7
100
AcDbSpline
 70
8
 71
3
 72
8
 73
4
 74
0
 40
0
 40
0
 40
0
 40
0
 40
1
 40
1
 40
1
 40
1
 10
587.940237
 20
10.789623
 30
0.0
 10
587.940243
 20
10.274726
 30
0.0
 10
587.735705
 20
9.780915
 30
0.0
 10
587.371621
 20
9.416825
 30
0.0
  0
SPLINE
  5
37e
100
AcDbEntity
  8
Layer_1
 62
7
100
AcDbSpline
 70
8
 71
3
 72
8
 73
4
 74
0
 40
0
 40
0
 40
0
 40
0
 40
1
 40
1
 40
1
 40
1
 10
587.371621
 20
9.416825
 30
0.0
 10
587.007536
 20
9.052735
 30
0.0
 10
586.513728
 20
8.848190
 30
0.0
 10
585.998831
 20
8.848188
 30
0.0
  0
LINE
  5
37f
100
AcDbEntity
  8
Layer_1
 62
7
100
AcDbLine
 10
585.998831
 20
8.848188
 30
0.0
 11
585.998831
 21
8.848188
 31
0.0
  0
SPLINE
  5
380
100
AcDbEntity
  8
Layer_1
 62
7
100
AcDbSpline
 70
8
 71
3
 72
8
 73
4
 74
0
 40
0
 40
0
 40
0
 40
0
 40
1
 40
1
 40
1
 40
1
 10
368.612172
 20
181.098204
 30
0.0
 10
367.539961
 20
181.098202
 30
0.0
 10
366.670760
 20
181.967399
 30
0.0
 10
366.670757
 20
183.039610
 30
0.0
  0
SPLINE
  5
381
100
AcDbEntity
  8
Layer_1
 62
7
100
AcDbSpline
 70
8
 71
3
 72
8
 73
4
 74
0
 40
0
 40
0
 40
0
 40
0
 40
1
 40
1
 40
1
 40
1
 10
366.670757
 20
183.039610
 30
0.0
 10
366.670751
 20
183.554509
 30
0.0
 10
366.875290
 20
184.048321
 30
0.0
 10
367.239376
 20
184.412412
 30
0.0
  0
SPLINE
  5
382
100
AcDbEntity
  8
Layer_1
 62
7
100
AcDbSpline
 70
8
 71
3
 72
8
 73
4
 74
0
 40
0
 40
0
 40
0
 40
0
 40
1
 40
1
 40
1
 40
1
 10
367.239376
 20
184.412412
 30
0.0
 10
367.603463
 20
184.776502
 30
0.0
 10
368.097273
 20
184.981046
 30
0.0
 10
368.612172
 20
184.981045
 30
0.0
  0
SPLINE
  5
383
100
AcDbEntity
  8
Layer_1
 62
7
100
AcDbSpline
 70
8
 71
3
 72
8
 73
4
 74
0
 40
0
 40
0
 40
0
 40
0
 40
1
 40
1
 40
1
 40
1
 10
368.612172
 20
184.981045
 30
0.0
 10
369.127070
 20
184.981045
 30
0.0
 10
369.620879
 20
184.776501
 30
0.0
 10
369.984965
 20
184.412411
 30
0.0
  0
SPLINE
  5
384
100
AcDbEntity
  8
Layer_1
 62
7
100
AcDbSpline
 70
8
 71
3
 72
8
 73
4
 74
0
 40
0
 40
0
 40
0
 40
0
 40
1
 40
1
 40
1
 40
1
 10
369.984965
 20
184.412411
 30
0.0
 10
370.349051
 20
184.048320
 30
0.0
 10
370.553590
 20
183.554509
 30
0.0
 10
370.553584
 20
183.039610
 30
0.0
  0
SPLINE
  5
385
100
AcDbEntity
  8
Layer_1
 62
7
100
AcDbSpline
 70
8
 71
3
 72
8
 73
4
 74
0
 40
0
 40
0
 40
0
 40
0
 40
1
 40
1
 40
1
 40
1
 10
370.553584
 20
183.039610
 30
0.0
 10
370.553580
 20
181.967400
 30
0.0
 10
369.684381
 20
181.098204
 30
0.0
 10
368.612172
 20
181.098204
 30
0.0
  0
LINE
  5
386
100
AcDbEntity
  8
Layer_1
 62
7
100
AcDbLine
 10
368.612172
 20
181.098204
 30
0.0
 11
368.612172
 21
181.098204
 31
0.0
  0
SPLINE
  5
387
100
AcDbEntity
  8
Layer_1
 62
7
100
AcDbSpline
 70
8
 71
3
 72
8
 73
4
 74
0
 40
0
 40
0
 40
0
 40
0
 40
1
 40
1
 40
1
 40
1
 10
368.612172
 20
41.098201
 30
0.0
 10
367.539960
 20
41.098201
 30
0.0
 10
366.670760
 20
41.967397
 30
0.0
 10
366.670757
 20
43.039608
 30
0.0
  0
SPLINE
  5
388
100
AcDbEntity
  8
Layer_1
 62
7
100
AcDbSpline
 70
8
 71
3
 72
8
 73
4
 74
0
 40
0
 40
0
 40
0
 40
0
 40
1
 40
1
 40
1
 40
1
 10
366.670757
 20
43.039608
 30
0.0
 10
366.670751
 20
43.554507
 30
0.0
 10
366.875290
 20
44.048319
 30
0.0
 10
367.239376
 20
44.412409
 30
0.0
  0
SPLINE
  5
389
100
AcDbEntity
  8
Layer_1
 62
7
100
AcDbSpline
 70
8
 71
3
 72
8
 73
4
 74
0
 40
0
 40
0
 40
0
 40
0
 40
1
 40
1
 40
1
 40
1
 10
367.239376
 20
44.412409
 30
0.0
 10
367.603463
 20
44.776500
 30
0.0
 10
368.097273
 20
44.981043
 30
0.0
 10
368.612172
 20
44.981043
 30
0.0
  0
SPLINE
  5
38a
100
AcDbEntity
  8
Layer_1
 62
7
100
AcDbSpline
 70
8
 71
3
 72
8
 73
4
 74
0
 40
0
 40
0
 40
0
 40
0
 40
1
 40
1
 40
1
 40
1
 10
368.612172
 20
44.981043
 30
0.0
 10
369.127071
 20
44.981043
 30
0.0
 10
369.620881
 20
44.776500
 30
0.0
 10
369.984967
 20
44.412409
 30
0.0
  0
SPLINE
  5
38b
100
AcDbEntity
  8
Layer_1
 62
7
100
AcDbSpline
 70
8
 71
3
 72
8
 73
4
 74
0
 40
0
 40
0
 40
0
 40
0
 40
1
 40
1
 40
1
 40
1
 10
369.984967
 20
44.412409
 30
0.0
 10
370.349054
 20
44.048319
 30
0.0
 10
370.553593
 20
43.554507
 30
0.0
 10
370.553587
 20
43.039608
 30
0.0
  0
SPLINE
  5
38c
100
AcDbEntity
  8
Layer_1
 62
7
100
AcDbSpline
 70
8
 71
3
 72
8
 73
4
 74
0
 40
0
 40
0
 40
0
 40
0
 40
1
 40
1
 40
1
 40
1
 10
370.553587
 20
43.039608
 30
0.0
 10
370.553583
 20
41.967397
 30
0.0
 10
369.684383
 20
41.098201
 30
0.0
 10
368.612172
 20
41.098201
 30
0.0
  0
LINE
  5
38d
100
AcDbEntity
  8
Layer_1
 62
7
100
AcDbLine
 10
368.612172
 20
41.098201
 30
0.0
 11
368.612172
 21
41.098201
 31
0.0
  0
SPLINE
  5
38e
100
AcDbEntity
  8
Layer_1
 62
7
100
AcDbSpline
 70
8
 71
3
 72
8
 73
4
 74
0
 40
0
 40
0
 40
0
 40
0
 40
1
 40
1
 40
1
 40
1
 10
471.612172
 20
41.098201
 30
0.0
 10
470.539961
 20
41.098200
 30
0.0
 10
469.670760
 20
41.967397
 30
0.0
 10
469.670757
 20
43.039608
 30
0.0
  0
SPLINE
  5
38f
100
AcDbEntity
  8
Layer_1
 62
7
100
AcDbSpline
 70
8
 71
3
 72
8
 73
4
 74
0
 40
0
 40
0
 40
0
 40
0
 40
1
 40
1
 40
1
 40
1
 10
469.670757
 20
43.039608
 30
0.0
 10
469.670751
 20
43.554507
 30
0.0
 10
469.875290
 20
44.048319
 30
0.0
 10
470.239376
 20
44.412409
 30
0.0
  0
SPLINE
  5
390
100
AcDbEntity
  8
Layer_1
 62
7
100
AcDbSpline
 70
8
 71
3
 72
8
 73
4
 74
0
 40
0
 40
0
 40
0
 40
0
 40
1
 40
1
 40
1
 40
1
 10
470.239376
 20
44.412409
 30
0.0
 10
470.603463
 20
44.776500
 30
0.0
 10
471.097273
 20
44.981044
 30
0.0
 10
471.612172
 20
44.981043
 30
0.0
  0
SPLINE
  5
391
100
AcDbEntity
  8
Layer_1
 62
7
100
AcDbSpline
 70
8
 71
3
 72
8
 73
4
 74
0
 40
0
 40
0
 40
0
 40
0
 40
1
 40
1
 40
1
 40
1
 10
471.612172
 20
44.981043
 30
0.0
 10
472.127070
 20
44.981043
 30
0.0
 10
472.620879
 20
44.776499
 30
0.0
 10
472.984965
 20
44.412408
 30
0.0
  0
SPLINE
  5
392
100
AcDbEntity
  8
Layer_1
 62
7
100
AcDbSpline
 70
8
 71
3
 72
8
 73
4
 74
0
 40
0
 40
0
 40
0
 40
0
 40
1
 40
1
 40
1
 40
1
 10
472.984965
 20
44.412408
 30
0.0
 10
473.349051
 20
44.048318
 30
0.0
 10
473.553590
 20
43.554507
 30
0.0
 10
473.553584
 20
43.039608
 30
0.0
  0
SPLINE
  5
393
100
AcDbEntity
  8
Layer_1
 62
7
100
AcDbSpline
 70
8
 71
3
 72
8
 73
4
 74
0
 40
0
 40
0
 40
0
 40
0
 40
1
 40
1
 40
1
 40
1
 10
473.553584
 20
43.039608
 30
0.0
 10
473.553580
 20
41.967398
 30
0.0
 10
472.684381
 20
41.098202
 30
0.0
 10
471.612172
 20
41.098201
 30
0.0
  0
LINE
  5
394
100
AcDbEntity
  8
Layer_1
 62
7
100
AcDbLine
 10
471.612172
 20
41.098201
 30
0.0
 11
471.612172
 21
41.098201
 31
0.0
  0
SPLINE
  5
395
100
AcDbEntity
  8
Layer_1
 62
7
100
AcDbSpline
 70
8
 71
3
 72
8
 73
4
 74
0
 40
0
 40
0
 40
0
 40
0
 40
1
 40
1
 40
1
 40
1
 10
471.612172
 20
181.098204
 30
0.0
 10
470.539961
 20
181.098202
 30
0.0
 10
469.670760
 20
181.967399
 30
0.0
 10
469.670757
 20
183.039610
 30
0.0
  0
SPLINE
  5
396
100
AcDbEntity
  8
Layer_1
 62
7
100
AcDbSpline
 70
8
 71
3
 72
8
 73
4
 74
0
 40
0
 40
0
 40
0
 40
0
 40
1
 40
1
 40
1
 40
1
 10
469.670757
 20
183.039610
 30
0.0
 10
469.670751
 20
183.554509
 30
0.0
 10
469.875290
 20
184.048321
 30
0.0
 10
470.239376
 20
184.412412
 30
0.0
  0
SPLINE
  5
397
100
AcDbEntity
  8
Layer_1
 62
7
100
AcDbSpline
 70
8
 71
3
 72
8
 73
4
 74
0
 40
0
 40
0
 40
0
 40
0
 40
1
 40
1
 40
1
 40
1
 10
470.239376
 20
184.412412
 30
0.0
 10
470.603463
 20
184.776502
 30
0.0
 10
471.097273
 20
184.981046
 30
0.0
 10
471.612172
 20
184.981045
 30
0.0
  0
SPLINE
  5
398
100
AcDbEntity
  8
Layer_1
 62
7
100
AcDbSpline
 70
8
 71
3
 72
8
 73
4
 74
0
 40
0
 40
0
 40
0
 40
0
 40
1
 40
1
 40
1
 40
1
 10
471.612172
 20
184.981045
 30
0.0
 10
472.127070
 20
184.981045
 30
0.0
 10
472.620879
 20
184.776501
 30
0.0
 10
472.984965
 20
184.412411
 30
0.0
  0
SPLINE
  5
399
100
AcDbEntity
  8
Layer_1
 62
7
100
AcDbSpline
 70
8
 71
3
 72
8
 73
4
 74
0
 40
0
 40
0
 40
0
 40
0
 40
1
 40
1
 40
1
 40
1
 10
472.984965
 20
184.412411
 30
0.0
 10
473.349051
 20
184.048320
 30
0.0
 10
473.553590
 20
183.554509
 30
0.0
 10
473.553584
 20
183.039610
 30
0.0
  0
SPLINE
  5
39a
100
AcDbEntity
  8
Layer_1
 62
7
100
AcDbSpline
 70
8
 71
3
 72
8
 73
4
 74
0
 40
0
 40
0
 40
0
 40
0
 40
1
 40
1
 40
1
 40
1
 10
473.553584
 20
183.039610
 30
0.0
 10
473.553580
 20
181.967400
 30
0.0
 10
472.684381
 20
181.098204
 30
0.0
 10
471.612172
 20
181.098204
 30
0.0
  0
LINE
  5
39b
100
AcDbEntity
  8
Layer_1
 62
7
100
AcDbLine
 10
471.612172
 20
181.098204
 30
0.0
 11
471.612172
 21
181.098204
 31
0.0
  0
LINE
  5
39c
100
AcDbEntity
  8
Layer_1
 62
6
100
AcDbLine
 10
596.058190
 20
227.632753
 30
0.0
 11
598.558143
 21
219.132756
 31
0.0
  0
LINE
  5
39d
100
AcDbEntity
  8
Layer_1
 62
6
100
AcDbLine
 10
598.558143
 20
219.132756
 30
0.0
 11
568.558175
 21
190.132758
 31
0.0
  0
LINE
  5
39e
100
AcDbEntity
  8
Layer_1
 62
6
100
AcDbLine
 10
568.558175
 20
190.132758
 30
0.0
 11
543.558168
 21
167.632761
 31
0.0
  0
LINE
  5
39f
100
AcDbEntity
  8
Layer_1
 62
6
100
AcDbLine
 10
543.558168
 20
167.632761
 30
0.0
 11
543.558168
 21
144.073386
 31
0.0
  0
LINE
  5
3a0
100
AcDbEntity
  8
Layer_1
 62
6
100
AcDbLine
 10
543.558168
 20
144.073386
 30
0.0
 11
543.558168
 21
133.882765
 31
0.0
  0
LINE
  5
3a1
100
AcDbEntity
  8
Layer_1
 62
6
100
AcDbLine
 10
543.558168
 20
133.882765
 30
0.0
 11
543.558168
 21
124.507766
 31
0.0
  0
LINE
  5
3a2
100
AcDbEntity
  8
Layer_1
 62
6
100
AcDbLine
 10
543.558168
 20
124.507766
 30
0.0
 11
543.558168
 21
114.385104
 31
0.0
  0
LINE
  5
3a3
100
AcDbEntity
  8
Layer_1
 62
6
100
AcDbLine
 10
543.558168
 20
114.385104
 30
0.0
 11
543.558168
 21
105.757768
 31
0.0
  0
LINE
  5
3a4
100
AcDbEntity
  8
Layer_1
 62
6
100
AcDbLine
 10
543.558168
 20
105.757768
 30
0.0
 11
543.558168
 21
96.382769
 31
0.0
  0
LINE
  5
3a5
100
AcDbEntity
  8
Layer_1
 62
6
100
AcDbLine
 10
543.558168
 20
96.382769
 30
0.0
 11
543.558168
 21
87.007742
 31
0.0
  0
LINE
  5
3a6
100
AcDbEntity
  8
Layer_1
 62
6
100
AcDbLine
 10
543.558168
 20
87.007742
 30
0.0
 11
543.558168
 21
65.132754
 31
0.0
  0
LINE
  5
3a7
100
AcDbEntity
  8
Layer_1
 62
6
100
AcDbLine
 10
543.558168
 20
65.132754
 30
0.0
 11
568.558175
 21
40.132747
 31
0.0
  0
LINE
  5
3a8
100
AcDbEntity
  8
Layer_1
 62
6
100
AcDbLine
 10
568.558175
 20
40.132747
 30
0.0
 11
598.558143
 21
11.132749
 31
0.0
  0
LINE
  5
3a9
100
AcDbEntity
  8
Layer_1
 62
6
100
AcDbLine
 10
598.558143
 20
11.132749
 30
0.0
 11
596.058190
 21
2.632752
 31
0.0
  0
LINE
  5
3aa
100
AcDbEntity
  8
Layer_1
 62
6
100
AcDbLine
 10
596.058190
 20
2.632752
 30
0.0
 11
587.558193
 21
0.132771
 31
0.0
  0
LINE
  5
3ab
100
AcDbEntity
  8
Layer_1
 62
6
100
AcDbLine
 10
587.558193
 20
0.132771
 30
0.0
 11
578.798185
 21
5.266026
 31
0.0
  0
LINE
  5
3ac
100
AcDbEntity
  8
Layer_1
 62
6
100
AcDbLine
 10
578.798185
 20
5.266026
 30
0.0
 11
374.998824
 21
5.266026
 31
0.0
  0
LINE
  5
3ad
100
AcDbEntity
  8
Layer_1
 62
6
100
AcDbLine
 10
374.998824
 20
5.266026
 30
0.0
 11
359.998826
 21
5.266026
 31
0.0
  0
LINE
  5
3ae
100
AcDbEntity
  8
Layer_1
 62
6
100
AcDbLine
 10
359.998826
 20
5.266026
 30
0.0
 11
264.998810
 21
5.266026
 31
0.0
  0
LINE
  5
3af
100
AcDbEntity
  8
Layer_1
 62
6
100
AcDbLine
 10
264.998810
 20
5.266026
 30
0.0
 11
264.998810
 21
20.266025
 31
0.0
  0
LINE
  5
3b0
100
AcDbEntity
  8
Layer_1
 62
6
100
AcDbLine
 10
264.998810
 20
20.266025
 30
0.0
 11
274.998818
 21
30.266033
 31
0.0
  0
LINE
  5
3b1
100
AcDbEntity
  8
Layer_1
 62
6
100
AcDbLine
 10
274.998818
 20
30.266033
 30
0.0
 11
316.449924
 21
30.266033
 31
0.0
  0
LINE
  5
3b2
100
AcDbEntity
  8
Layer_1
 62
6
100
AcDbLine
 10
316.449924
 20
30.266033
 30
0.0
 11
334.354384
 21
30.266033
 31
0.0
  0
LINE
  5
3b3
100
AcDbEntity
  8
Layer_1
 62
6
100
AcDbLine
 10
334.354384
 20
30.266033
 30
0.0
 11
344.998825
 21
40.266041
 31
0.0
  0
LINE
  5
3b4
100
AcDbEntity
  8
Layer_1
 62
6
100
AcDbLine
 10
344.998825
 20
40.266041
 30
0.0
 11
344.998825
 21
190.266023
 31
0.0
  0
LINE
  5
3b5
100
AcDbEntity
  8
Layer_1
 62
6
100
AcDbLine
 10
344.998825
 20
190.266023
 30
0.0
 11
333.789940
 21
200.266031
 31
0.0
  0
LINE
  5
3b6
100
AcDbEntity
  8
Layer_1
 62
6
100
AcDbLine
 10
333.789940
 20
200.266031
 30
0.0
 11
316.449924
 21
200.266031
 31
0.0
  0
LINE
  5
3b7
100
AcDbEntity
  8
Layer_1
 62
6
100
AcDbLine
 10
316.449924
 20
200.266031
 30
0.0
 11
274.998818
 21
200.266031
 31
0.0
  0
LINE
  5
3b8
100
AcDbEntity
  8
Layer_1
 62
6
100
AcDbLine
 10
274.998818
 20
200.266031
 30
0.0
 11
264.998810
 21
210.266040
 31
0.0
  0
LINE
  5
3b9
100
AcDbEntity
  8
Layer_1
 62
6
100
AcDbLine
 10
264.998810
 20
210.266040
 30
0.0
 11
264.998810
 21
225.266038
 31
0.0
  0
LINE
  5
3ba
100
AcDbEntity
  8
Layer_1
 62
6
100
AcDbLine
 10
264.998810
 20
225.266038
 30
0.0
 11
359.998826
 21
225.266038
 31
0.0
  0
LINE
  5
3bb
100
AcDbEntity
  8
Layer_1
 62
6
100
AcDbLine
 10
359.998826
 20
225.266038
 30
0.0
 11
374.998824
 21
225.266038
 31
0.0
  0
LINE
  5
3bc
100
AcDbEntity
  8
Layer_1
 62
6
100
AcDbLine
 10
374.998824
 20
225.266038
 30
0.0
 11
483.559522
 21
225.266038
 31
0.0
  0
LINE
  5
3bd
100
AcDbEntity
  8
Layer_1
 62
6
100
AcDbLine
 10
483.559522
 20
225.266038
 30
0.0
 11
580.492873
 21
225.266038
 31
0.0
  0
LINE
  5
3be
100
AcDbEntity
  8
Layer_1
 62
6
100
AcDbLine
 10
580.492873
 20
225.266038
 30
0.0
 11
587.559548
 21
230.132424
 31
0.0
  0
LINE
  5
3bf
100
AcDbEntity
  8
Layer_1
 62
6
100
AcDbLine
 10
587.559548
 20
230.132424
 30
0.0
 11
596.058190
 21
227.632753
 31
0.0
  0
SPLINE
  5
3c0
100
AcDbEntity
  8
Layer_1
 62
5
100
AcDbSpline
 70
8
 71
3
 72
8
 73
4
 74
0
 40
0
 40
0
 40
0
 40
0
 40
1
 40
1
 40
1
 40
1
 10
506.515113
 20
152.932708
 30
0.0
 10
505.276810
 20
154.171015
 30
0.0
 10
503.566388
 20
154.937220
 30
0.0
 10
501.676546
 20
154.937220
 30
0.0
  0
SPLINE
  5
3c1
100
AcDbEntity
  8
Layer_1
 62
5
100
AcDbSpline
 70
8
 71
3
 72
8
 73
4
 74
0
 40
0
 40
0
 40
0
 40
0
 40
1
 40
1
 40
1
 40
1
 10
501.676546
 20
154.937220
 30
0.0
 10
497.897153
 20
154.937220
 30
0.0
 10
494.833489
 20
151.873274
 30
0.0
 10
494.833489
 20
148.094149
 30
0.0
  0
SPLINE
  5
3c2
100
AcDbEntity
  8
Layer_1
 62
5
100
AcDbSpline
 70
8
 71
3
 72
8
 73
4
 74
0
 40
0
 40
0
 40
0
 40
0
 40
1
 40
1
 40
1
 40
1
 10
494.833489
 20
148.094149
 30
0.0
 10
494.833489
 20
144.315024
 30
0.0
 10
497.897153
 20
141.251079
 30
0.0
 10
501.676546
 20
141.251079
 30
0.0
  0
SPLINE
  5
3c3
100
AcDbEntity
  8
Layer_1
 62
5
100
AcDbSpline
 70
8
 71
3
 72
8
 73
4
 74
0
 40
0
 40
0
 40
0
 40
0
 40
1
 40
1
 40
1
 40
1
 10
501.676546
 20
141.251079
 30
0.0
 10
503.566114
 20
141.251079
 30
0.0
 10
505.276810
 20
142.017002
 30
0.0
 10
506.514978
 20
143.255308
 30
0.0
  0
LINE
  5
3c4
100
AcDbEntity
  8
Layer_1
 62
5
100
AcDbLine
 10
511.353957
 20
148.094149
 30
0.0
 11
506.515113
 21
152.932708
 31
0.0
  0
LINE
  5
3c5
100
AcDbEntity
  8
Layer_1
 62
5
100
AcDbLine
 10
506.515113
 20
152.932708
 30
0.0
 11
511.353957
 21
148.094149
 31
0.0
  0
LINE
  5
3c6
100
AcDbEntity
  8
Layer_1
 62
5
100
AcDbLine
 10
511.353957
 20
148.094149
 30
0.0
 11
511.353957
 21
148.094149
 31
0.0
  0
LINE
  5
3c7
100
AcDbEntity
  8
Layer_1
 62
5
100
AcDbLine
 10
506.514978
 20
143.255308
 30
0.0
 11
511.353957
 21
148.094149
 31
0.0
  0
LINE
  5
3c8
100
AcDbEntity
  8
Layer_1
 62
5
100
AcDbLine
 10
511.353957
 20
148.094149
 30
0.0
 11
511.353957
 21
148.094149
 31
0.0
  0
LINE
  5
3c9
100
AcDbEntity
  8
Layer_1
 62
5
100
AcDbLine
 10
511.353957
 20
148.094149
 30
0.0
 11
506.514978
 21
143.255308
 31
0.0
  0
LINE
  5
3ca
100
AcDbEntity
  8
Layer_1
 62
5
100
AcDbLine
 10
506.514978
 20
143.255308
 30
0.0
 11
506.514978
 21
143.255308
 31
0.0
  0
SPLINE
  5
3cb
100
AcDbEntity
  8
Layer_1
 62
7
100
AcDbSpline
 70
8
 71
3
 72
8
 73
4
 74
0
 40
0
 40
0
 40
0
 40
0
 40
1
 40
1
 40
1
 40
1
 10
326.694506
 20
38.681758
 30
0.0
 10
327.766714
 20
38.681755
 30
0.0
 10
328.635909
 20
37.812560
 30
0.0
 10
328.635913
 20
36.740352
 30
0.0
  0
SPLINE
  5
3cc
100
AcDbEntity
  8
Layer_1
 62
7
100
AcDbSpline
 70
8
 71
3
 72
8
 73
4
 74
0
 40
0
 40
0
 40
0
 40
0
 40
1
 40
1
 40
1
 40
1
 10
328.635913
 20
36.740352
 30
0.0
 10
328.635919
 20
36.225454
 30
0.0
 10
328.431381
 20
35.731644
 30
0.0
 10
328.067296
 20
35.367553
 30
0.0
  0
SPLINE
  5
3cd
100
AcDbEntity
  8
Layer_1
 62
7
100
AcDbSpline
 70
8
 71
3
 72
8
 73
4
 74
0
 40
0
 40
0
 40
0
 40
0
 40
1
 40
1
 40
1
 40
1
 10
328.067296
 20
35.367553
 30
0.0
 10
327.703211
 20
35.003463
 30
0.0
 10
327.209404
 20
34.798918
 30
0.0
 10
326.694506
 20
34.798917
 30
0.0
  0
SPLINE
  5
3ce
100
AcDbEntity
  8
Layer_1
 62
7
100
AcDbSpline
 70
8
 71
3
 72
8
 73
4
 74
0
 40
0
 40
0
 40
0
 40
0
 40
1
 40
1
 40
1
 40
1
 10
326.694506
 20
34.798917
 30
0.0
 10
326.179604
 20
34.798911
 30
0.0
 10
325.685789
 20
35.003453
 30
0.0
 10
325.321698
 20
35.367543
 30
0.0
  0
SPLINE
  5
3cf
100
AcDbEntity
  8
Layer_1
 62
7
100
AcDbSpline
 70
8
 71
3
 72
8
 73
4
 74
0
 40
0
 40
0
 40
0
 40
0
 40
1
 40
1
 40
1
 40
1
 10
325.321698
 20
35.367543
 30
0.0
 10
324.957608
 20
35.731634
 30
0.0
 10
324.753066
 20
36.225449
 30
0.0
 10
324.753072
 20
36.740352
 30
0.0
  0
SPLINE
  5
3d0
100
AcDbEntity
  8
Layer_1
 62
7
100
AcDbSpline
 70
8
 71
3
 72
8
 73
4
 74
0
 40
0
 40
0
 40
0
 40
0
 40
1
 40
1
 40
1
 40
1
 10
324.753072
 20
36.740352
 30
0.0
 10
324.753073
 20
37.255249
 30
0.0
 10
324.957618
 20
37.749057
 30
0.0
 10
325.321708
 20
38.113142
 30
0.0
  0
SPLINE
  5
3d1
100
AcDbEntity
  8
Layer_1
 62
7
100
AcDbSpline
 70
8
 71
3
 72
8
 73
4
 74
0
 40
0
 40
0
 40
0
 40
0
 40
1
 40
1
 40
1
 40
1
 10
325.321708
 20
38.113142
 30
0.0
 10
325.685799
 20
38.477227
 30
0.0
 10
326.179609
 20
38.681764
 30
0.0
 10
326.694506
 20
38.681758
 30
0.0
  0
LINE
  5
3d2
100
AcDbEntity
  8
Layer_1
 62
7
100
AcDbLine
 10
326.694506
 20
38.681758
 30
0.0
 11
326.694506
 21
38.681758
 31
0.0
  0
SPLINE
  5
3d3
100
AcDbEntity
  8
Layer_1
 62
7
100
AcDbSpline
 70
8
 71
3
 72
8
 73
4
 74
0
 40
0
 40
0
 40
0
 40
0
 40
1
 40
1
 40
1
 40
1
 10
326.694506
 20
246.681794
 30
0.0
 10
327.209404
 20
246.681792
 30
0.0
 10
327.703211
 20
246.477247
 30
0.0
 10
328.067296
 20
246.113157
 30
0.0
  0
SPLINE
  5
3d4
100
AcDbEntity
  8
Layer_1
 62
7
100
AcDbSpline
 70
8
 71
3
 72
8
 73
4
 74
0
 40
0
 40
0
 40
0
 40
0
 40
1
 40
1
 40
1
 40
1
 10
328.067296
 20
246.113157
 30
0.0
 10
328.431381
 20
245.749067
 30
0.0
 10
328.635919
 20
245.255257
 30
0.0
 10
328.635913
 20
244.740359
 30
0.0
  0
SPLINE
  5
3d5
100
AcDbEntity
  8
Layer_1
 62
7
100
AcDbSpline
 70
8
 71
3
 72
8
 73
4
 74
0
 40
0
 40
0
 40
0
 40
0
 40
1
 40
1
 40
1
 40
1
 10
328.635913
 20
244.740359
 30
0.0
 10
328.635909
 20
243.668151
 30
0.0
 10
327.766714
 20
242.798956
 30
0.0
 10
326.694506
 20
242.798952
 30
0.0
  0
SPLINE
  5
3d6
100
AcDbEntity
  8
Layer_1
 62
7
100
AcDbSpline
 70
8
 71
3
 72
8
 73
4
 74
0
 40
0
 40
0
 40
0
 40
0
 40
1
 40
1
 40
1
 40
1
 10
326.694506
 20
242.798952
 30
0.0
 10
326.179609
 20
242.798947
 30
0.0
 10
325.685799
 20
243.003484
 30
0.0
 10
325.321708
 20
243.367569
 30
0.0
  0
SPLINE
  5
3d7
100
AcDbEntity
  8
Layer_1
 62
7
100
AcDbSpline
 70
8
 71
3
 72
8
 73
4
 74
0
 40
0
 40
0
 40
0
 40
0
 40
1
 40
1
 40
1
 40
1
 10
325.321708
 20
243.367569
 30
0.0
 10
324.957618
 20
243.731654
 30
0.0
 10
324.753073
 20
244.225462
 30
0.0
 10
324.753072
 20
244.740359
 30
0.0
  0
SPLINE
  5
3d8
100
AcDbEntity
  8
Layer_1
 62
7
100
AcDbSpline
 70
8
 71
3
 72
8
 73
4
 74
0
 40
0
 40
0
 40
0
 40
0
 40
1
 40
1
 40
1
 40
1
 10
324.753072
 20
244.740359
 30
0.0
 10
324.753066
 20
245.255261
 30
0.0
 10
324.957608
 20
245.749076
 30
0.0
 10
325.321698
 20
246.113167
 30
0.0
  0
SPLINE
  5
3d9
100
AcDbEntity
  8
Layer_1
 62
7
100
AcDbSpline
 70
8
 71
3
 72
8
 73
4
 74
0
 40
0
 40
0
 40
0
 40
0
 40
1
 40
1
 40
1
 40
1
 10
325.321698
 20
246.113167
 30
0.0
 10
325.685789
 20
246.477258
 30
0.0
 10
326.179604
 20
246.681800
 30
0.0
 10
326.694506
 20
246.681794
 30
0.0
  0
LINE
  5
3da
100
AcDbEntity
  8
Layer_1
 62
7
100
AcDbLine
 10
326.694506
 20
246.681794
 30
0.0
 11
326.694506
 21
246.681794
 31
0.0
  0
SPLINE
  5
3db
100
AcDbEntity
  8
Layer_1
 62
7
100
AcDbSpline
 70
8
 71
3
 72
8
 73
4
 74
0
 40
0
 40
0
 40
0
 40
0
 40
1
 40
1
 40
1
 40
1
 10
12.694485
 20
38.681758
 30
0.0
 10
13.209383
 20
38.681764
 30
0.0
 10
13.703193
 20
38.477227
 30
0.0
 10
14.067283
 20
38.113142
 30
0.0
  0
SPLINE
  5
3dc
100
AcDbEntity
  8
Layer_1
 62
7
100
AcDbSpline
 70
8
 71
3
 72
8
 73
4
 74
0
 40
0
 40
0
 40
0
 40
0
 40
1
 40
1
 40
1
 40
1
 10
14.067283
 20
38.113142
 30
0.0
 10
14.431374
 20
37.749057
 30
0.0
 10
14.635918
 20
37.255249
 30
0.0
 10
14.635920
 20
36.740352
 30
0.0
  0
SPLINE
  5
3dd
100
AcDbEntity
  8
Layer_1
 62
7
100
AcDbSpline
 70
8
 71
3
 72
8
 73
4
 74
0
 40
0
 40
0
 40
0
 40
0
 40
1
 40
1
 40
1
 40
1
 10
14.635920
 20
36.740352
 30
0.0
 10
14.635926
 20
36.225449
 30
0.0
 10
14.431384
 20
35.731634
 30
0.0
 10
14.067293
 20
35.367543
 30
0.0
  0
SPLINE
  5
3de
100
AcDbEntity
  8
Layer_1
 62
7
100
AcDbSpline
 70
8
 71
3
 72
8
 73
4
 74
0
 40
0
 40
0
 40
0
 40
0
 40
1
 40
1
 40
1
 40
1
 10
14.067293
 20
35.367543
 30
0.0
 10
13.703202
 20
35.003453
 30
0.0
 10
13.209388
 20
34.798911
 30
0.0
 10
12.694485
 20
34.798917
 30
0.0
  0
SPLINE
  5
3df
100
AcDbEntity
  8
Layer_1
 62
7
100
AcDbSpline
 70
8
 71
3
 72
8
 73
4
 74
0
 40
0
 40
0
 40
0
 40
0
 40
1
 40
1
 40
1
 40
1
 10
12.694485
 20
34.798917
 30
0.0
 10
12.179588
 20
34.798918
 30
0.0
 10
11.685780
 20
35.003463
 30
0.0
 10
11.321696
 20
35.367553
 30
0.0
  0
SPLINE
  5
3e0
100
AcDbEntity
  8
Layer_1
 62
7
100
AcDbSpline
 70
8
 71
3
 72
8
 73
4
 74
0
 40
0
 40
0
 40
0
 40
0
 40
1
 40
1
 40
1
 40
1
 10
11.321696
 20
35.367553
 30
0.0
 10
10.957611
 20
35.731644
 30
0.0
 10
10.753073
 20
36.225454
 30
0.0
 10
10.753079
 20
36.740352
 30
0.0
  0
SPLINE
  5
3e1
100
AcDbEntity
  8
Layer_1
 62
7
100
AcDbSpline
 70
8
 71
3
 72
8
 73
4
 74
0
 40
0
 40
0
 40
0
 40
0
 40
1
 40
1
 40
1
 40
1
 10
10.753079
 20
36.740352
 30
0.0
 10
10.753082
 20
37.812560
 30
0.0
 10
11.622278
 20
38.681755
 30
0.0
 10
12.694485
 20
38.681758
 30
0.0
  0
LINE
  5
3e2
100
AcDbEntity
  8
Layer_1
 62
7
100
AcDbLine
 10
12.694485
 20
38.681758
 30
0.0
 11
12.694485
 21
38.681758
 31
0.0
  0
SPLINE
  5
3e3
100
AcDbEntity
  8
Layer_1
 62
7
100
AcDbSpline
 70
8
 71
3
 72
8
 73
4
 74
0
 40
0
 40
0
 40
0
 40
0
 40
1
 40
1
 40
1
 40
1
 10
12.694485
 20
246.681794
 30
0.0
 10
13.209388
 20
246.681800
 30
0.0
 10
13.703202
 20
246.477258
 30
0.0
 10
14.067293
 20
246.113167
 30
0.0
  0
SPLINE
  5
3e4
100
AcDbEntity
  8
Layer_1
 62
7
100
AcDbSpline
 70
8
 71
3
 72
8
 73
4
 74
0
 40
0
 40
0
 40
0
 40
0
 40
1
 40
1
 40
1
 40
1
 10
14.067293
 20
246.113167
 30
0.0
 10
14.431384
 20
245.749076
 30
0.0
 10
14.635926
 20
245.255261
 30
0.0
 10
14.635920
 20
244.740359
 30
0.0
  0
SPLINE
  5
3e5
100
AcDbEntity
  8
Layer_1
 62
7
100
AcDbSpline
 70
8
 71
3
 72
8
 73
4
 74
0
 40
0
 40
0
 40
0
 40
0
 40
1
 40
1
 40
1
 40
1
 10
14.635920
 20
244.740359
 30
0.0
 10
14.635918
 20
244.225462
 30
0.0
 10
14.431374
 20
243.731654
 30
0.0
 10
14.067283
 20
243.367569
 30
0.0
  0
SPLINE
  5
3e6
100
AcDbEntity
  8
Layer_1
 62
7
100
AcDbSpline
 70
8
 71
3
 72
8
 73
4
 74
0
 40
0
 40
0
 40
0
 40
0
 40
1
 40
1
 40
1
 40
1
 10
14.067283
 20
243.367569
 30
0.0
 10
13.703193
 20
243.003484
 30
0.0
 10
13.209383
 20
242.798947
 30
0.0
 10
12.694485
 20
242.798952
 30
0.0
  0
SPLINE
  5
3e7
100
AcDbEntity
  8
Layer_1
 62
7
100
AcDbSpline
 70
8
 71
3
 72
8
 73
4
 74
0
 40
0
 40
0
 40
0
 40
0
 40
1
 40
1
 40
1
 40
1
 10
12.694485
 20
242.798952
 30
0.0
 10
11.622278
 20
242.798956
 30
0.0
 10
10.753082
 20
243.668151
 30
0.0
 10
10.753079
 20
244.740359
 30
0.0
  0
SPLINE
  5
3e8
100
AcDbEntity
  8
Layer_1
 62
7
100
AcDbSpline
 70
8
 71
3
 72
8
 73
4
 74
0
 40
0
 40
0
 40
0
 40
0
 40
1
 40
1
 40
1
 40
1
 10
10.753079
 20
244.740359
 30
0.0
 10
10.753073
 20
245.255257
 30
0.0
 10
10.957611
 20
245.749067
 30
0.0
 10
11.321696
 20
246.113157
 30
0.0
  0
SPLINE
  5
3e9
100
AcDbEntity
  8
Layer_1
 62
7
100
AcDbSpline
 70
8
 71
3
 72
8
 73
4
 74
0
 40
0
 40
0
 40
0
 40
0
 40
1
 40
1
 40
1
 40
1
 10
11.321696
 20
246.113157
 30
0.0
 10
11.685780
 20
246.477247
 30
0.0
 10
12.179588
 20
246.681792
 30
0.0
 10
12.694485
 20
246.681794
 30
0.0
  0
LINE
  5
3ea
100
AcDbEntity
  8
Layer_1
 62
7
100
AcDbLine
 10
12.694485
 20
246.681794
 30
0.0
 11
12.694485
 21
246.681794
 31
0.0
  0
SPLINE
  5
3eb
100
AcDbEntity
  8
Layer_1
 62
7
100
AcDbSpline
 70
8
 71
3
 72
8
 73
4
 74
0
 40
0
 40
0
 40
0
 40
0
 40
1
 40
1
 40
1
 40
1
 10
230.081176
 20
74.431779
 30
0.0
 10
230.596073
 20
74.431777
 30
0.0
 10
231.089881
 20
74.227232
 30
0.0
 10
231.453965
 20
73.863142
 30
0.0
  0
SPLINE
  5
3ec
100
AcDbEntity
  8
Layer_1
 62
7
100
AcDbSpline
 70
8
 71
3
 72
8
 73
4
 74
0
 40
0
 40
0
 40
0
 40
0
 40
1
 40
1
 40
1
 40
1
 10
231.453965
 20
73.863142
 30
0.0
 10
231.818050
 20
73.499052
 30
0.0
 10
232.022588
 20
73.005241
 30
0.0
 10
232.022582
 20
72.490344
 30
0.0
  0
SPLINE
  5
3ed
100
AcDbEntity
  8
Layer_1
 62
7
100
AcDbSpline
 70
8
 71
3
 72
8
 73
4
 74
0
 40
0
 40
0
 40
0
 40
0
 40
1
 40
1
 40
1
 40
1
 10
232.022582
 20
72.490344
 30
0.0
 10
232.022578
 20
71.418136
 30
0.0
 10
231.153383
 20
70.548940
 30
0.0
 10
230.081176
 20
70.548937
 30
0.0
  0
SPLINE
  5
3ee
100
AcDbEntity
  8
Layer_1
 62
7
100
AcDbSpline
 70
8
 71
3
 72
8
 73
4
 74
0
 40
0
 40
0
 40
0
 40
0
 40
1
 40
1
 40
1
 40
1
 10
230.081176
 20
70.548937
 30
0.0
 10
229.566278
 20
70.548931
 30
0.0
 10
229.072468
 20
70.753469
 30
0.0
 10
228.708378
 20
71.117554
 30
0.0
  0
SPLINE
  5
3ef
100
AcDbEntity
  8
Layer_1
 62
7
100
AcDbSpline
 70
8
 71
3
 72
8
 73
4
 74
0
 40
0
 40
0
 40
0
 40
0
 40
1
 40
1
 40
1
 40
1
 10
228.708378
 20
71.117554
 30
0.0
 10
228.344287
 20
71.481638
 30
0.0
 10
228.139743
 20
71.975446
 30
0.0
 10
228.139741
 20
72.490344
 30
0.0
  0
SPLINE
  5
3f0
100
AcDbEntity
  8
Layer_1
 62
7
100
AcDbSpline
 70
8
 71
3
 72
8
 73
4
 74
0
 40
0
 40
0
 40
0
 40
0
 40
1
 40
1
 40
1
 40
1
 10
228.139741
 20
72.490344
 30
0.0
 10
228.139735
 20
73.005246
 30
0.0
 10
228.344277
 20
73.499061
 30
0.0
 10
228.708368
 20
73.863152
 30
0.0
  0
SPLINE
  5
3f1
100
AcDbEntity
  8
Layer_1
 62
7
100
AcDbSpline
 70
8
 71
3
 72
8
 73
4
 74
0
 40
0
 40
0
 40
0
 40
0
 40
1
 40
1
 40
1
 40
1
 10
228.708368
 20
73.863152
 30
0.0
 10
229.072459
 20
74.227243
 30
0.0
 10
229.566273
 20
74.431784
 30
0.0
 10
230.081176
 20
74.431779
 30
0.0
  0
LINE
  5
3f2
100
AcDbEntity
  8
Layer_1
 62
7
100
AcDbLine
 10
230.081176
 20
74.431779
 30
0.0
 11
230.081176
 21
74.431779
 31
0.0
  0
SPLINE
  5
3f3
100
AcDbEntity
  8
Layer_1
 62
7
100
AcDbSpline
 70
8
 71
3
 72
8
 73
4
 74
0
 40
0
 40
0
 40
0
 40
0
 40
1
 40
1
 40
1
 40
1
 10
230.081176
 20
214.431781
 30
0.0
 10
231.153384
 20
214.431777
 30
0.0
 10
232.022579
 20
213.562582
 30
0.0
 10
232.022582
 20
212.490374
 30
0.0
  0
SPLINE
  5
3f4
100
AcDbEntity
  8
Layer_1
 62
7
100
AcDbSpline
 70
8
 71
3
 72
8
 73
4
 74
0
 40
0
 40
0
 40
0
 40
0
 40
1
 40
1
 40
1
 40
1
 10
232.022582
 20
212.490374
 30
0.0
 10
232.022588
 20
211.975477
 30
0.0
 10
231.818050
 20
211.481666
 30
0.0
 10
231.453966
 20
211.117576
 30
0.0
  0
SPLINE
  5
3f5
100
AcDbEntity
  8
Layer_1
 62
7
100
AcDbSpline
 70
8
 71
3
 72
8
 73
4
 74
0
 40
0
 40
0
 40
0
 40
0
 40
1
 40
1
 40
1
 40
1
 10
231.453966
 20
211.117576
 30
0.0
 10
231.089881
 20
210.753486
 30
0.0
 10
230.596073
 20
210.548941
 30
0.0
 10
230.081176
 20
210.548939
 30
0.0
  0
SPLINE
  5
3f6
100
AcDbEntity
  8
Layer_1
 62
7
100
AcDbSpline
 70
8
 71
3
 72
8
 73
4
 74
0
 40
0
 40
0
 40
0
 40
0
 40
1
 40
1
 40
1
 40
1
 10
230.081176
 20
210.548939
 30
0.0
 10
229.566273
 20
210.548934
 30
0.0
 10
229.072458
 20
210.753475
 30
0.0
 10
228.708367
 20
211.117566
 30
0.0
  0
SPLINE
  5
3f7
100
AcDbEntity
  8
Layer_1
 62
7
100
AcDbSpline
 70
8
 71
3
 72
8
 73
4
 74
0
 40
0
 40
0
 40
0
 40
0
 40
1
 40
1
 40
1
 40
1
 10
228.708367
 20
211.117566
 30
0.0
 10
228.344276
 20
211.481657
 30
0.0
 10
228.139735
 20
211.975472
 30
0.0
 10
228.139741
 20
212.490374
 30
0.0
  0
SPLINE
  5
3f8
100
AcDbEntity
  8
Layer_1
 62
7
100
AcDbSpline
 70
8
 71
3
 72
8
 73
4
 74
0
 40
0
 40
0
 40
0
 40
0
 40
1
 40
1
 40
1
 40
1
 10
228.139741
 20
212.490374
 30
0.0
 10
228.139742
 20
213.005271
 30
0.0
 10
228.344287
 20
213.499079
 30
0.0
 10
228.708377
 20
213.863164
 30
0.0
  0
SPLINE
  5
3f9
100
AcDbEntity
  8
Layer_1
 62
7
100
AcDbSpline
 70
8
 71
3
 72
8
 73
4
 74
0
 40
0
 40
0
 40
0
 40
0
 40
1
 40
1
 40
1
 40
1
 10
228.708377
 20
213.863164
 30
0.0
 10
229.072467
 20
214.227249
 30
0.0
 10
229.566278
 20
214.431786
 30
0.0
 10
230.081176
 20
214.431781
 30
0.0
  0
LINE
  5
3fa
100
AcDbEntity
  8
Layer_1
 62
7
100
AcDbLine
 10
230.081176
 20
214.431781
 30
0.0
 11
230.081176
 21
214.431781
 31
0.0
  0
SPLINE
  5
3fb
100
AcDbEntity
  8
Layer_1
 62
7
100
AcDbSpline
 70
8
 71
3
 72
8
 73
4
 74
0
 40
0
 40
0
 40
0
 40
0
 40
1
 40
1
 40
1
 40
1
 10
127.081156
 20
214.431781
 30
0.0
 10
127.596053
 20
214.431787
 30
0.0
 10
128.089864
 20
214.227249
 30
0.0
 10
128.453954
 20
213.863164
 30
0.0
  0
SPLINE
  5
3fc
100
AcDbEntity
  8
Layer_1
 62
7
100
AcDbSpline
 70
8
 71
3
 72
8
 73
4
 74
0
 40
0
 40
0
 40
0
 40
0
 40
1
 40
1
 40
1
 40
1
 10
128.453954
 20
213.863164
 30
0.0
 10
128.818044
 20
213.499079
 30
0.0
 10
129.022589
 20
213.005272
 30
0.0
 10
129.022591
 20
212.490374
 30
0.0
  0
SPLINE
  5
3fd
100
AcDbEntity
  8
Layer_1
 62
7
100
AcDbSpline
 70
8
 71
3
 72
8
 73
4
 74
0
 40
0
 40
0
 40
0
 40
0
 40
1
 40
1
 40
1
 40
1
 10
129.022591
 20
212.490374
 30
0.0
 10
129.022596
 20
211.975472
 30
0.0
 10
128.818055
 20
211.481657
 30
0.0
 10
128.453964
 20
211.117566
 30
0.0
  0
SPLINE
  5
3fe
100
AcDbEntity
  8
Layer_1
 62
7
100
AcDbSpline
 70
8
 71
3
 72
8
 73
4
 74
0
 40
0
 40
0
 40
0
 40
0
 40
1
 40
1
 40
1
 40
1
 10
128.453964
 20
211.117566
 30
0.0
 10
128.089873
 20
210.753475
 30
0.0
 10
127.596058
 20
210.548933
 30
0.0
 10
127.081156
 20
210.548939
 30
0.0
  0
SPLINE
  5
3ff
100
AcDbEntity
  8
Layer_1
 62
7
100
AcDbSpline
 70
8
 71
3
 72
8
 73
4
 74
0
 40
0
 40
0
 40
0
 40
0
 40
1
 40
1
 40
1
 40
1
 10
127.081156
 20
210.548939
 30
0.0
 10
126.566258
 20
210.548941
 30
0.0
 10
126.072451
 20
210.753486
 30
0.0
 10
125.708366
 20
211.117576
 30
0.0
  0
SPLINE
  5
400
100
AcDbEntity
  8
Layer_1
 62
7
100
AcDbSpline
 70
8
 71
3
 72
8
 73
4
 74
0
 40
0
 40
0
 40
0
 40
0
 40
1
 40
1
 40
1
 40
1
 10
125.708366
 20
211.117576
 30
0.0
 10
125.344281
 20
211.481666
 30
0.0
 10
125.139743
 20
211.975477
 30
0.0
 10
125.139749
 20
212.490374
 30
0.0
  0
SPLINE
  5
401
100
AcDbEntity
  8
Layer_1
 62
7
100
AcDbSpline
 70
8
 71
3
 72
8
 73
4
 74
0
 40
0
 40
0
 40
0
 40
0
 40
1
 40
1
 40
1
 40
1
 10
125.139749
 20
212.490374
 30
0.0
 10
125.139753
 20
213.562582
 30
0.0
 10
126.008948
 20
214.431777
 30
0.0
 10
127.081156
 20
214.431781
 30
0.0
  0
LINE
  5
402
100
AcDbEntity
  8
Layer_1
 62
7
100
AcDbLine
 10
127.081156
 20
214.431781
 30
0.0
 11
127.081156
 21
214.431781
 31
0.0
  0
SPLINE
  5
403
100
AcDbEntity
  8
Layer_1
 62
7
100
AcDbSpline
 70
8
 71
3
 72
8
 73
4
 74
0
 40
0
 40
0
 40
0
 40
0
 40
1
 40
1
 40
1
 40
1
 10
127.081156
 20
74.431779
 30
0.0
 10
127.596058
 20
74.431784
 30
0.0
 10
128.089873
 20
74.227243
 30
0.0
 10
128.453964
 20
73.863152
 30
0.0
  0
SPLINE
  5
404
100
AcDbEntity
  8
Layer_1
 62
7
100
AcDbSpline
 70
8
 71
3
 72
8
 73
4
 74
0
 40
0
 40
0
 40
0
 40
0
 40
1
 40
1
 40
1
 40
1
 10
128.453964
 20
73.863152
 30
0.0
 10
128.818055
 20
73.499061
 30
0.0
 10
129.022596
 20
73.005246
 30
0.0
 10
129.022591
 20
72.490344
 30
0.0
  0
SPLINE
  5
405
100
AcDbEntity
  8
Layer_1
 62
7
100
AcDbSpline
 70
8
 71
3
 72
8
 73
4
 74
0
 40
0
 40
0
 40
0
 40
0
 40
1
 40
1
 40
1
 40
1
 10
129.022591
 20
72.490344
 30
0.0
 10
129.022589
 20
71.975446
 30
0.0
 10
128.818044
 20
71.481638
 30
0.0
 10
128.453954
 20
71.117554
 30
0.0
  0
SPLINE
  5
406
100
AcDbEntity
  8
Layer_1
 62
7
100
AcDbSpline
 70
8
 71
3
 72
8
 73
4
 74
0
 40
0
 40
0
 40
0
 40
0
 40
1
 40
1
 40
1
 40
1
 10
128.453954
 20
71.117554
 30
0.0
 10
128.089864
 20
70.753469
 30
0.0
 10
127.596053
 20
70.548931
 30
0.0
 10
127.081156
 20
70.548937
 30
0.0
  0
SPLINE
  5
407
100
AcDbEntity
  8
Layer_1
 62
7
100
AcDbSpline
 70
8
 71
3
 72
8
 73
4
 74
0
 40
0
 40
0
 40
0
 40
0
 40
1
 40
1
 40
1
 40
1
 10
127.081156
 20
70.548937
 30
0.0
 10
126.008948
 20
70.548940
 30
0.0
 10
125.139753
 20
71.418136
 30
0.0
 10
125.139749
 20
72.490344
 30
0.0
  0
SPLINE
  5
408
100
AcDbEntity
  8
Layer_1
 62
7
100
AcDbSpline
 70
8
 71
3
 72
8
 73
4
 74
0
 40
0
 40
0
 40
0
 40
0
 40
1
 40
1
 40
1
 40
1
 10
125.139749
 20
72.490344
 30
0.0
 10
125.139743
 20
73.005241
 30
0.0
 10
125.344281
 20
73.499052
 30
0.0
 10
125.708366
 20
73.863142
 30
0.0
  0
SPLINE
  5
409
100
AcDbEntity
  8
Layer_1
 62
7
100
AcDbSpline
 70
8
 71
3
 72
8
 73
4
 74
0
 40
0
 40
0
 40
0
 40
0
 40
1
 40
1
 40
1
 40
1
 10
125.708366
 20
73.863142
 30
0.0
 10
126.072451
 20
74.227232
 30
0.0
 10
126.566258
 20
74.431777
 30
0.0
 10
127.081156
 20
74.431779
 30
0.0
  0
LINE
  5
40a
100
AcDbEntity
  8
Layer_1
 62
7
100
AcDbLine
 10
127.081156
 20
74.431779
 30
0.0
 11
127.081156
 21
74.431779
 31
0.0
  0
LINE
  5
40b
100
AcDbEntity
  8
Layer_1
 62
6
100
AcDbLine
 10
274.894988
 20
30.264339
 30
0.0
 11
238.694513
 21
30.264339
 31
0.0
  0
LINE
  5
40c
100
AcDbEntity
  8
Layer_1
 62
6
100
AcDbLine
 10
238.694513
 20
30.264339
 30
0.0
 11
223.694515
 21
30.264339
 31
0.0
  0
LINE
  5
40d
100
AcDbEntity
  8
Layer_1
 62
6
100
AcDbLine
 10
223.694515
 20
30.264339
 30
0.0
 11
115.133814
 21
30.264339
 31
0.0
  0
LINE
  5
40e
100
AcDbEntity
  8
Layer_1
 62
6
100
AcDbLine
 10
115.133814
 20
30.264339
 30
0.0
 11
20.458249
 21
30.264339
 31
0.0
  0
LINE
  5
40f
100
AcDbEntity
  8
Layer_1
 62
6
100
AcDbLine
 10
20.458249
 20
30.264339
 30
0.0
 11
11.133825
 21
25.397530
 31
0.0
  0
LINE
  5
410
100
AcDbEntity
  8
Layer_1
 62
6
100
AcDbLine
 10
11.133825
 20
25.397530
 30
0.0
 11
2.635182
 21
27.897539
 31
0.0
  0
LINE
  5
411
100
AcDbEntity
  8
Layer_1
 62
6
100
AcDbLine
 10
2.635182
 20
27.897539
 30
0.0
 11
0.135173
 21
36.397536
 31
0.0
  0
LINE
  5
412
100
AcDbEntity
  8
Layer_1
 62
6
100
AcDbLine
 10
0.135173
 20
36.397536
 30
0.0
 11
30.135170
 21
65.397535
 31
0.0
  0
LINE
  5
413
100
AcDbEntity
  8
Layer_1
 62
6
100
AcDbLine
 10
30.135170
 20
65.397535
 30
0.0
 11
55.135176
 21
87.897532
 31
0.0
  0
LINE
  5
414
100
AcDbEntity
  8
Layer_1
 62
6
100
AcDbLine
 10
55.135176
 20
87.897532
 30
0.0
 11
55.135176
 21
111.456907
 31
0.0
  0
LINE
  5
415
100
AcDbEntity
  8
Layer_1
 62
6
100
AcDbLine
 10
55.135176
 20
111.456907
 30
0.0
 11
55.135176
 21
121.647528
 31
0.0
  0
LINE
  5
416
100
AcDbEntity
  8
Layer_1
 62
6
100
AcDbLine
 10
55.135176
 20
121.647528
 30
0.0
 11
55.135176
 21
131.022527
 31
0.0
  0
LINE
  5
417
100
AcDbEntity
  8
Layer_1
 62
6
100
AcDbLine
 10
55.135176
 20
131.022527
 30
0.0
 11
55.135176
 21
141.145189
 31
0.0
  0
LINE
  5
418
100
AcDbEntity
  8
Layer_1
 62
6
100
AcDbLine
 10
55.135176
 20
141.145189
 30
0.0
 11
55.135176
 21
149.772525
 31
0.0
  0
LINE
  5
419
100
AcDbEntity
  8
Layer_1
 62
6
100
AcDbLine
 10
55.135176
 20
149.772525
 30
0.0
 11
55.135176
 21
159.147524
 31
0.0
  0
LINE
  5
41a
100
AcDbEntity
  8
Layer_1
 62
6
100
AcDbLine
 10
55.135176
 20
159.147524
 30
0.0
 11
55.135176
 21
168.522523
 31
0.0
  0
LINE
  5
41b
100
AcDbEntity
  8
Layer_1
 62
6
100
AcDbLine
 10
55.135176
 20
168.522523
 30
0.0
 11
55.135176
 21
190.397539
 31
0.0
  0
LINE
  5
41c
100
AcDbEntity
  8
Layer_1
 62
6
100
AcDbLine
 10
55.135176
 20
190.397539
 30
0.0
 11
30.135170
 21
215.397545
 31
0.0
  0
LINE
  5
41d
100
AcDbEntity
  8
Layer_1
 62
6
100
AcDbLine
 10
30.135170
 20
215.397545
 30
0.0
 11
0.135173
 21
244.397544
 31
0.0
  0
LINE
  5
41e
100
AcDbEntity
  8
Layer_1
 62
6
100
AcDbLine
 10
0.135173
 20
244.397544
 30
0.0
 11
2.635182
 21
252.897541
 31
0.0
  0
LINE
  5
41f
100
AcDbEntity
  8
Layer_1
 62
6
100
AcDbLine
 10
2.635182
 20
252.897541
 30
0.0
 11
11.135179
 21
255.397522
 31
0.0
  0
LINE
  5
420
100
AcDbEntity
  8
Layer_1
 62
6
100
AcDbLine
 10
11.135179
 20
255.397522
 30
0.0
 11
21.024048
 21
250.264323
 31
0.0
  0
LINE
  5
421
100
AcDbEntity
  8
Layer_1
 62
6
100
AcDbLine
 10
21.024048
 20
250.264323
 30
0.0
 11
223.694515
 21
250.264323
 31
0.0
  0
LINE
  5
422
100
AcDbEntity
  8
Layer_1
 62
6
100
AcDbLine
 10
223.694515
 20
250.264323
 30
0.0
 11
238.694513
 21
250.264323
 31
0.0
  0
LINE
  5
423
100
AcDbEntity
  8
Layer_1
 62
6
100
AcDbLine
 10
238.694513
 20
250.264323
 30
0.0
 11
333.694521
 21
250.264323
 31
0.0
  0
LINE
  5
424
100
AcDbEntity
  8
Layer_1
 62
6
100
AcDbLine
 10
333.694521
 20
250.264323
 30
0.0
 11
333.694521
 21
235.264325
 31
0.0
  0
LINE
  5
425
100
AcDbEntity
  8
Layer_1
 62
6
100
AcDbLine
 10
333.694521
 20
235.264325
 30
0.0
 11
323.694512
 21
225.264316
 31
0.0
  0
LINE
  5
426
100
AcDbEntity
  8
Layer_1
 62
6
100
AcDbLine
 10
265.009986
 20
225.264316
 30
0.0
 11
264.338946
 21
225.264316
 31
0.0
  0
LINE
  5
427
100
AcDbEntity
  8
Layer_1
 62
6
100
AcDbLine
 10
264.338946
 20
225.264316
 30
0.0
 11
253.694511
 21
215.264308
 31
0.0
  0
LINE
  5
428
100
AcDbEntity
  8
Layer_1
 62
6
100
AcDbLine
 10
253.694511
 20
215.264308
 30
0.0
 11
253.694511
 21
65.264326
 31
0.0
  0
LINE
  5
429
100
AcDbEntity
  8
Layer_1
 62
6
100
AcDbLine
 10
253.694511
 20
65.264326
 30
0.0
 11
264.903390
 21
55.264318
 31
0.0
  0
LINE
  5
42a
100
AcDbEntity
  8
Layer_1
 62
6
100
AcDbLine
 10
264.903390
 20
55.264318
 30
0.0
 11
282.243406
 21
55.264318
 31
0.0
  0
LINE
  5
42b
100
AcDbEntity
  8
Layer_1
 62
6
100
AcDbLine
 10
282.243406
 20
55.264318
 30
0.0
 11
323.694512
 21
55.264318
 31
0.0
  0
LINE
  5
42c
100
AcDbEntity
  8
Layer_1
 62
6
100
AcDbLine
 10
323.694512
 20
55.264318
 30
0.0
 11
333.694521
 21
45.264309
 31
0.0
  0
LINE
  5
42d
100
AcDbEntity
  8
Layer_1
 62
6
100
AcDbLine
 10
333.694521
 20
45.264309
 30
0.0
 11
333.694521
 21
30.264311
 31
0.0
  0
SPLINE
  5
42e
100
AcDbEntity
  8
Layer_1
 62
5
100
AcDbSpline
 70
8
 71
3
 72
8
 73
4
 74
0
 40
0
 40
0
 40
0
 40
0
 40
1
 40
1
 40
1
 40
1
 10
92.178217
 20
102.597274
 30
0.0
 10
93.416521
 20
101.358968
 30
0.0
 10
95.126943
 20
100.592763
 30
0.0
 10
97.016784
 20
100.592763
 30
0.0
  0
SPLINE
  5
42f
100
AcDbEntity
  8
Layer_1
 62
5
100
AcDbSpline
 70
8
 71
3
 72
8
 73
4
 74
0
 40
0
 40
0
 40
0
 40
0
 40
1
 40
1
 40
1
 40
1
 10
97.016784
 20
100.592763
 30
0.0
 10
100.796177
 20
100.592763
 30
0.0
 10
103.859841
 20
103.656708
 30
0.0
 10
103.859841
 20
107.435833
 30
0.0
  0
SPLINE
  5
430
100
AcDbEntity
  8
Layer_1
 62
5
100
AcDbSpline
 70
8
 71
3
 72
8
 73
4
 74
0
 40
0
 40
0
 40
0
 40
0
 40
1
 40
1
 40
1
 40
1
 10
103.859841
 20
107.435833
 30
0.0
 10
103.859841
 20
111.214958
 30
0.0
 10
100.796177
 20
114.278903
 30
0.0
 10
97.016784
 20
114.278903
 30
0.0
  0
SPLINE
  5
431
100
AcDbEntity
  8
Layer_1
 62
5
100
AcDbSpline
 70
8
 71
3
 72
8
 73
4
 74
0
 40
0
 40
0
 40
0
 40
0
 40
1
 40
1
 40
1
 40
1
 10
97.016784
 20
114.278903
 30
0.0
 10
95.127216
 20
114.278903
 30
0.0
 10
93.416521
 20
113.512981
 30
0.0
 10
92.178353
 20
112.274674
 30
0.0
  0
LINE
  5
432
100
AcDbEntity
  8
Layer_1
 62
5
100
AcDbLine
 10
87.339373
 20
107.435833
 30
0.0
 11
92.178217
 21
102.597274
 31
0.0
  0
LINE
  5
433
100
AcDbEntity
  8
Layer_1
 62
5
100
AcDbLine
 10
92.178217
 20
102.597274
 30
0.0
 11
87.339373
 21
107.435833
 31
0.0
  0
LINE
  5
434
100
AcDbEntity
  8
Layer_1
 62
5
100
AcDbLine
 10
87.339373
 20
107.435833
 30
0.0
 11
87.339373
 21
107.435833
 31
0.0
  0
LINE
  5
435
100
AcDbEntity
  8
Layer_1
 62
5
100
AcDbLine
 10
92.178353
 20
112.274674
 30
0.0
 11
87.339373
 21
107.435833
 31
0.0
  0
LINE
  5
436
100
AcDbEntity
  8
Layer_1
 62
5
100
AcDbLine
 10
87.339373
 20
107.435833
 30
0.0
 11
87.339373
 21
107.435833
 31
0.0
  0
LINE
  5
437
100
AcDbEntity
  8
Layer_1
 62
5
100
AcDbLine
 10
87.339373
 20
107.435833
 30
0.0
 11
92.178353
 21
112.274674
 31
0.0
  0
LINE
  5
438
100
AcDbEntity
  8
Layer_1
 62
5
100
AcDbLine
 10
92.178353
 20
112.274674
 30
0.0
 11
92.178353
 21
112.274674
 31
0.0
  0
LINE
  5
439
100
AcDbEntity
  8
Layer_1
 62
7
100
AcDbLine
 10
12.494590
 20
244.973421
 30
0.0
 11
12.994590
 21
244.973421
 31
0.0
  0
LINE
  5
43a
100
AcDbEntity
  8
Layer_1
 62
7
100
AcDbLine
 10
12.994590
 20
244.973421
 30
0.0
 11
12.994590
 21
244.473421
 31
0.0
  0
LINE
  5
43b
100
AcDbEntity
  8
Layer_1
 62
7
100
AcDbLine
 10
12.994590
 20
244.473421
 30
0.0
 11
12.494590
 21
244.473421
 31
0.0
  0
LINE
  5
43c
100
AcDbEntity
  8
Layer_1
 62
7
100
AcDbLine
 10
12.494590
 20
244.473421
 30
0.0
 11
12.494590
 21
244.973421
 31
0.0
  0
LINE
  5
43d
100
AcDbEntity
  8
Layer_1
 62
7
100
AcDbLine
 10
12.491556
 20
37.002626
 30
0.0
 11
12.991556
 21
37.002626
 31
0.0
  0
LINE
  5
43e
100
AcDbEntity
  8
Layer_1
 62
7
100
AcDbLine
 10
12.991556
 20
37.002626
 30
0.0
 11
12.991556
 21
36.502626
 31
0.0
  0
LINE
  5
43f
100
AcDbEntity
  8
Layer_1
 62
7
100
AcDbLine
 10
12.991556
 20
36.502626
 30
0.0
 11
12.491556
 21
36.502626
 31
0.0
  0
LINE
  5
440
100
AcDbEntity
  8
Layer_1
 62
7
100
AcDbLine
 10
12.491556
 20
36.502626
 30
0.0
 11
12.491556
 21
37.002626
 31
0.0
  0
LINE
  5
441
100
AcDbEntity
  8
Layer_1
 62
7
100
AcDbLine
 10
271.761847
 20
10.966179
 30
0.0
 11
272.261847
 21
10.966179
 31
0.0
  0
LINE
  5
442
100
AcDbEntity
  8
Layer_1
 62
7
100
AcDbLine
 10
272.261847
 20
10.966179
 30
0.0
 11
272.261847
 21
10.466179
 31
0.0
  0
LINE
  5
443
100
AcDbEntity
  8
Layer_1
 62
7
100
AcDbLine
 10
272.261847
 20
10.466179
 30
0.0
 11
271.761847
 21
10.466179
 31
0.0
  0
LINE
  5
444
100
AcDbEntity
  8
Layer_1
 62
7
100
AcDbLine
 10
271.761847
 20
10.466179
 30
0.0
 11
271.761847
 21
10.966179
 31
0.0
  0
LINE
  5
445
100
AcDbEntity
  8
Layer_1
 62
7
100
AcDbLine
 10
368.394674
 20
43.251357
 30
0.0
 11
368.894674
 21
43.251357
 31
0.0
  0
LINE
  5
446
100
AcDbEntity
  8
Layer_1
 62
7
100
AcDbLine
 10
368.894674
 20
43.251357
 30
0.0
 11
368.894674
 21
42.751357
 31
0.0
  0
LINE
  5
447
100
AcDbEntity
  8
Layer_1
 62
7
100
AcDbLine
 10
368.894674
 20
42.751357
 30
0.0
 11
368.394674
 21
42.751357
 31
0.0
  0
LINE
  5
448
100
AcDbEntity
  8
Layer_1
 62
7
100
AcDbLine
 10
368.394674
 20
42.751357
 30
0.0
 11
368.394674
 21
43.251357
 31
0.0
  0
LINE
  5
449
100
AcDbEntity
  8
Layer_1
 62
7
100
AcDbLine
 10
326.443498
 20
37.000713
 30
0.0
 11
326.943498
 21
37.000713
 31
0.0
  0
LINE
  5
44a
100
AcDbEntity
  8
Layer_1
 62
7
100
AcDbLine
 10
326.943498
 20
37.000713
 30
0.0
 11
326.943498
 21
36.500713
 31
0.0
  0
LINE
  5
44b
100
AcDbEntity
  8
Layer_1
 62
7
100
AcDbLine
 10
326.943498
 20
36.500713
 30
0.0
 11
326.443498
 21
36.500713
 31
0.0
  0
LINE
  5
44c
100
AcDbEntity
  8
Layer_1
 62
7
100
AcDbLine
 10
326.443498
 20
36.500713
 30
0.0
 11
326.443498
 21
37.000713
 31
0.0
  0
LINE
  5
44d
100
AcDbEntity
  8
Layer_1
 62
7
100
AcDbLine
 10
585.749883
 20
10.991432
 30
0.0
 11
586.249883
 21
10.991432
 31
0.0
  0
LINE
  5
44e
100
AcDbEntity
  8
Layer_1
 62
7
100
AcDbLine
 10
586.249883
 20
10.991432
 30
0.0
 11
586.249883
 21
10.491432
 31
0.0
  0
LINE
  5
44f
100
AcDbEntity
  8
Layer_1
 62
7
100
AcDbLine
 10
586.249883
 20
10.491432
 30
0.0
 11
585.749883
 21
10.491432
 31
0.0
  0
LINE
  5
450
100
AcDbEntity
  8
Layer_1
 62
7
100
AcDbLine
 10
585.749883
 20
10.491432
 30
0.0
 11
585.749883
 21
10.991432
 31
0.0
  0
LINE
  5
451
100
AcDbEntity
  8
Layer_1
 62
7
100
AcDbLine
 10
471.369748
 20
43.296126
 30
0.0
 11
471.869748
 21
43.296126
 31
0.0
  0
LINE
  5
452
100
AcDbEntity
  8
Layer_1
 62
7
100
AcDbLine
 10
471.869748
 20
43.296126
 30
0.0
 11
471.869748
 21
42.796126
 31
0.0
  0
LINE
  5
453
100
AcDbEntity
  8
Layer_1
 62
7
100
AcDbLine
 10
471.869748
 20
42.796126
 30
0.0
 11
471.369748
 21
42.796126
 31
0.0
  0
LINE
  5
454
100
AcDbEntity
  8
Layer_1
 62
7
100
AcDbLine
 10
471.369748
 20
42.796126
 30
0.0
 11
471.369748
 21
43.296126
 31
0.0
  0
LINE
  5
455
100
AcDbEntity
  8
Layer_1
 62
7
100
AcDbLine
 10
368.343282
 20
183.320501
 30
0.0
 11
368.843282
 21
183.320501
 31
0.0
  0
LINE
  5
456
100
AcDbEntity
  8
Layer_1
 62
7
100
AcDbLine
 10
368.843282
 20
183.320501
 30
0.0
 11
368.843282
 21
182.820500
 31
0.0
  0
LINE
  5
457
100
AcDbEntity
  8
Layer_1
 62
7
100
AcDbLine
 10
368.843282
 20
182.820500
 30
0.0
 11
368.343282
 21
182.820500
 31
0.0
  0
LINE
  5
458
100
AcDbEntity
  8
Layer_1
 62
7
100
AcDbLine
 10
368.343282
 20
182.820500
 30
0.0
 11
368.343282
 21
183.320501
 31
0.0
  0
LINE
  5
459
100
AcDbEntity
  8
Layer_1
 62
7
100
AcDbLine
 10
471.344100
 20
183.229015
 30
0.0
 11
471.844100
 21
183.229015
 31
0.0
  0
LINE
  5
45a
100
AcDbEntity
  8
Layer_1
 62
7
100
AcDbLine
 10
471.844100
 20
183.229015
 30
0.0
 11
471.844100
 21
182.729015
 31
0.0
  0
LINE
  5
45b
100
AcDbEntity
  8
Layer_1
 62
7
100
AcDbLine
 10
471.844100
 20
182.729015
 30
0.0
 11
471.344100
 21
182.729015
 31
0.0
  0
LINE
  5
45c
100
AcDbEntity
  8
Layer_1
 62
7
100
AcDbLine
 10
471.344100
 20
182.729015
 30
0.0
 11
471.344100
 21
183.229015
 31
0.0
  0
LINE
  5
45d
100
AcDbEntity
  8
Layer_1
 62
7
100
AcDbLine
 10
585.725329
 20
218.992938
 30
0.0
 11
586.225329
 21
218.992938
 31
0.0
  0
LINE
  5
45e
100
AcDbEntity
  8
Layer_1
 62
7
100
AcDbLine
 10
586.225329
 20
218.992938
 30
0.0
 11
586.225329
 21
218.492938
 31
0.0
  0
LINE
  5
45f
100
AcDbEntity
  8
Layer_1
 62
7
100
AcDbLine
 10
586.225329
 20
218.492938
 30
0.0
 11
585.725329
 21
218.492938
 31
0.0
  0
LINE
  5
460
100
AcDbEntity
  8
Layer_1
 62
7
100
AcDbLine
 10
585.725329
 20
218.492938
 30
0.0
 11
585.725329
 21
218.992938
 31
0.0
  0
LINE
  5
461
100
AcDbEntity
  8
Layer_1
 62
7
100
AcDbLine
 10
271.754537
 20
219.029689
 30
0.0
 11
272.254537
 21
219.029689
 31
0.0
  0
LINE
  5
462
100
AcDbEntity
  8
Layer_1
 62
7
100
AcDbLine
 10
272.254537
 20
219.029689
 30
0.0
 11
272.254537
 21
218.529689
 31
0.0
  0
LINE
  5
463
100
AcDbEntity
  8
Layer_1
 62
7
100
AcDbLine
 10
272.254537
 20
218.529689
 30
0.0
 11
271.754537
 21
218.529689
 31
0.0
  0
LINE
  5
464
100
AcDbEntity
  8
Layer_1
 62
7
100
AcDbLine
 10
271.754537
 20
218.529689
 30
0.0
 11
271.754537
 21
219.029689
 31
0.0
  0
LINE
  5
465
100
AcDbEntity
  8
Layer_1
 62
7
100
AcDbLine
 10
229.828548
 20
212.713829
 30
0.0
 11
230.328548
 21
212.713829
 31
0.0
  0
LINE
  5
466
100
AcDbEntity
  8
Layer_1
 62
7
100
AcDbLine
 10
230.328548
 20
212.713829
 30
0.0
 11
230.328548
 21
212.213829
 31
0.0
  0
LINE
  5
467
100
AcDbEntity
  8
Layer_1
 62
7
100
AcDbLine
 10
230.328548
 20
212.213829
 30
0.0
 11
229.828548
 21
212.213829
 31
0.0
  0
LINE
  5
468
100
AcDbEntity
  8
Layer_1
 62
7
100
AcDbLine
 10
229.828548
 20
212.213829
 30
0.0
 11
229.828548
 21
212.713829
 31
0.0
  0
LINE
  5
469
100
AcDbEntity
  8
Layer_1
 62
7
100
AcDbLine
 10
229.849201
 20
72.766284
 30
0.0
 11
230.349201
 21
72.766284
 31
0.0
  0
LINE
  5
46a
100
AcDbEntity
  8
Layer_1
 62
7
100
AcDbLine
 10
230.349201
 20
72.766284
 30
0.0
 11
230.349201
 21
72.266284
 31
0.0
  0
LINE
  5
46b
100
AcDbEntity
  8
Layer_1
 62
7
100
AcDbLine
 10
230.349201
 20
72.266284
 30
0.0
 11
229.849201
 21
72.266284
 31
0.0
  0
LINE
  5
46c
100
AcDbEntity
  8
Layer_1
 62
7
100
AcDbLine
 10
229.849201
 20
72.266284
 30
0.0
 11
229.849201
 21
72.766284
 31
0.0
  0
LINE
  5
46d
100
AcDbEntity
  8
Layer_1
 62
7
100
AcDbLine
 10
326.432198
 20
245.029902
 30
0.0
 11
326.932198
 21
245.029902
 31
0.0
  0
LINE
  5
46e
100
AcDbEntity
  8
Layer_1
 62
7
100
AcDbLine
 10
326.932198
 20
245.029902
 30
0.0
 11
326.932198
 21
244.529902
 31
0.0
  0
LINE
  5
46f
100
AcDbEntity
  8
Layer_1
 62
7
100
AcDbLine
 10
326.932198
 20
244.529902
 30
0.0
 11
326.432198
 21
244.529902
 31
0.0
  0
LINE
  5
470
100
AcDbEntity
  8
Layer_1
 62
7
100
AcDbLine
 10
326.432198
 20
244.529902
 30
0.0
 11
326.432198
 21
245.029902
 31
0.0
  0
LINE
  5
471
100
AcDbEntity
  8
Layer_1
 62
7
100
AcDbLine
 10
126.835775
 20
212.694305
 30
0.0
 11
127.335775
 21
212.694305
 31
0.0
  0
LINE
  5
472
100
AcDbEntity
  8
Layer_1
 62
7
100
AcDbLine
 10
127.335775
 20
212.694305
 30
0.0
 11
127.335775
 21
212.194305
 31
0.0
  0
LINE
  5
473
100
AcDbEntity
  8
Layer_1
 62
7
100
AcDbLine
 10
127.335775
 20
212.194305
 30
0.0
 11
126.835775
 21
212.194305
 31
0.0
  0
LINE
  5
474
100
AcDbEntity
  8
Layer_1
 62
7
100
AcDbLine
 10
126.835775
 20
212.194305
 30
0.0
 11
126.835775
 21
212.694305
 31
0.0
  0
LINE
  5
475
100
AcDbEntity
  8
Layer_1
 62
7
100
AcDbLine
 10
126.836732
 20
72.757687
 30
0.0
 11
127.336732
 21
72.757687
 31
0.0
  0
LINE
  5
476
100
AcDbEntity
  8
Layer_1
 62
7
100
AcDbLine
 10
127.336732
 20
72.757687
 30
0.0
 11
127.336732
 21
72.257687
 31
0.0
  0
LINE
  5
477
100
AcDbEntity
  8
Layer_1
 62
7
100
AcDbLine
 10
127.336732
 20
72.257687
 30
0.0
 11
126.836732
 21
72.257687
 31
0.0
  0
LINE
  5
478
100
AcDbEntity
  8
Layer_1
 62
7
100
AcDbLine
 10
126.836732
 20
72.257687
 30
0.0
 11
126.836732
 21
72.757687
 31
0.0
  0
ENDSEC
  0
SECTION
  2
OBJECTS
  0
DICTIONARY
  5
C
330
0
100
AcDbDictionary
  3
ACAD_GROUP
350
D
  3
ACAD_MLINESTYLE
350
17
  0
DICTIONARY
  5
D
330
C
100
AcDbDictionary
  0
DICTIONARY
  5
1A
330
C
100
AcDbDictionary
  0
DICTIONARY
  5
17
330
C
100
AcDbDictionary
  3
STANDARD
350
18
  0
DICTIONARY
  5
19
330
C
100
AcDbDictionary
  0
ENDSEC
  0
EOF
